  0
SECTION
  2
HEADER
  9
$ACADVER
  1
AC1018
  9
$ACADMAINTVER
 70
     0
  9
$DWGCODEPAGE
  3
UNDEFINED
  9
$INSBASE
 10
0.0
 20
0.0
 30
0.0
  9
$EXTMIN
 10
1.000000000000000E+20
 20
1.000000000000000E+20
 30
1.000000000000000E+20
  9
$EXTMAX
 10
-1.000000000000000E+20
 20
-1.000000000000000E+20
 30
-1.000000000000000E+20
  9
$LIMMIN
 10
0.0
 20
0.0
  9
$LIMMAX
 10
12.0
 20
9.0
  9
$ORTHOMODE
 70
     0
  9
$REGENMODE
 70
     1
  9
$FILLMODE
 70
     1
  9
$QTEXTMODE
 70
     0
  9
$MIRRTEXT
 70
     1
  9
$LTSCALE
 40
1.0
  9
$ATTMODE
 70
     1
  9
$TEXTSIZE
 40
0.2
  9
$TRACEWID
 40
0.05
  9
$TEXTSTYLE
  7
Standard
  9
$CLAYER
  8
0
  9
$CELTYPE
  6
ByLayer
  9
$CECOLOR
 62
   256
  9
$CELTSCALE
 40
1.0
  9
$DISPSILH
 70
     0
  9
$DIMSCALE
 40
1.0
  9
$DIMASZ
 40
0.18
  9
$DIMEXO
 40
0.0625
  9
$DIMDLI
 40
0.38
  9
$DIMRND
 40
0.0
  9
$DIMDLE
 40
0.0
  9
$DIMEXE
 40
0.18
  9
$DIMTP
 40
0.0
  9
$DIMTM
 40
0.0
  9
$DIMTXT
 40
0.18
  9
$DIMCEN
 40
0.09
  9
$DIMTSZ
 40
0.0
  9
$DIMTOL
 70
     0
  9
$DIMLIM
 70
     0
  9
$DIMTIH
 70
     1
  9
$DIMTOH
 70
     1
  9
$DIMSE1
 70
     0
  9
$DIMSE2
 70
     0
  9
$DIMTAD
 70
     0
  9
$DIMZIN
 70
     0
  9
$DIMBLK
  1

  9
$DIMASO
 70
     1
  9
$DIMSHO
 70
     1
  9
$DIMPOST
  1

  9
$DIMAPOST
  1

  9
$DIMALT
 70
     0
  9
$DIMALTD
 70
     2
  9
$DIMALTF
 40
25.4
  9
$DIMLFAC
 40
1.0
  9
$DIMTOFL
 70
     0
  9
$DIMTVP
 40
0.0
  9
$DIMTIX
 70
     0
  9
$DIMSOXD
 70
     0
  9
$DIMSAH
 70
     0
  9
$DIMBLK1
  1

  9
$DIMBLK2
  1

  9
$DIMSTYLE
  2
Standard
  9
$DIMCLRD
 70
     0
  9
$DIMCLRE
 70
     0
  9
$DIMCLRT
 70
     0
  9
$DIMTFAC
 40
1.0
  9
$DIMGAP
 40
0.09
  9
$DIMJUST
 70
     0
  9
$DIMSD1
 70
     0
  9
$DIMSD2
 70
     0
  9
$DIMTOLJ
 70
     1
  9
$DIMTZIN
 70
     0
  9
$DIMALTZ
 70
     0
  9
$DIMALTTZ
 70
     0
  9
$DIMUPT
 70
     0
  9
$DIMDEC
 70
     4
  9
$DIMTDEC
 70
     4
  9
$DIMALTU
 70
     2
  9
$DIMALTTD
 70
     2
  9
$DIMTXSTY
  7
Standard
  9
$DIMAUNIT
 70
     0
  9
$DIMADEC
 70
     0
  9
$DIMALTRND
 40
0.0
  9
$DIMAZIN
 70
     0
  9
$DIMDSEP
 70
    46
  9
$DIMATFIT
 70
     3
  9
$DIMFRAC
 70
     0
  9
$DIMLDRBLK
  1

  9
$DIMLUNIT
 70
     2
  9
$DIMLWD
 70
    -2
  9
$DIMLWE
 70
    -2
  9
$DIMTMOVE
 70
     0
  9
$LUNITS
 70
     2
  9
$LUPREC
 70
     4
  9
$SKETCHINC
 40
0.1
  9
$FILLETRAD
 40
0.5
  9
$AUNITS
 70
     0
  9
$AUPREC
 70
     0
  9
$MENU
  1
.
  9
$ELEVATION
 40
0.0
  9
$PELEVATION
 40
0.0
  9
$THICKNESS
 40
0.0
  9
$LIMCHECK
 70
     0
  9
$CHAMFERA
 40
0.5
  9
$CHAMFERB
 40
0.5
  9
$CHAMFERC
 40
1.0
  9
$CHAMFERD
 40
0.0
  9
$SKPOLY
 70
     0
  9
$TDCREATE
 40
2454819.45474537
  9
$TDUCREATE
 40
2454819.788078704
  9
$TDUPDATE
 40
2454819.454745382
  9
$TDUUPDATE
 40
2454819.788078715
  9
$TDINDWG
 40
0.0000000116
  9
$TDUSRTIMER
 40
0.0000000116
  9
$USRTIMER
 70
     1
  9
$ANGBASE
 50
0.0
  9
$ANGDIR
 70
     0
  9
$PDMODE
 70
     0
  9
$PDSIZE
 40
0.0
  9
$PLINEWID
 40
0.0
  9
$SPLFRAME
 70
     0
  9
$SPLINETYPE
 70
     6
  9
$SPLINESEGS
 70
     8
  9
$HANDSEED
  5
ED
  9
$SURFTAB1
 70
     6
  9
$SURFTAB2
 70
     6
  9
$SURFTYPE
 70
     6
  9
$SURFU
 70
     6
  9
$SURFV
 70
     6
  9
$UCSBASE
  2

  9
$UCSNAME
  2

  9
$UCSORG
 10
0.0
 20
0.0
 30
0.0
  9
$UCSXDIR
 10
1.0
 20
0.0
 30
0.0
  9
$UCSYDIR
 10
0.0
 20
1.0
 30
0.0
  9
$UCSORTHOREF
  2

  9
$UCSORTHOVIEW
 70
     0
  9
$UCSORGTOP
 10
0.0
 20
0.0
 30
0.0
  9
$UCSORGBOTTOM
 10
0.0
 20
0.0
 30
0.0
  9
$UCSORGLEFT
 10
0.0
 20
0.0
 30
0.0
  9
$UCSORGRIGHT
 10
0.0
 20
0.0
 30
0.0
  9
$UCSORGFRONT
 10
0.0
 20
0.0
 30
0.0
  9
$UCSORGBACK
 10
0.0
 20
0.0
 30
0.0
  9
$PUCSBASE
  2

  9
$PUCSNAME
  2

  9
$PUCSORG
 10
0.0
 20
0.0
 30
0.0
  9
$PUCSXDIR
 10
1.0
 20
0.0
 30
0.0
  9
$PUCSYDIR
 10
0.0
 20
1.0
 30
0.0
  9
$PUCSORTHOREF
  2

  9
$PUCSORTHOVIEW
 70
     0
  9
$PUCSORGTOP
 10
0.0
 20
0.0
 30
0.0
  9
$PUCSORGBOTTOM
 10
0.0
 20
0.0
 30
0.0
  9
$PUCSORGLEFT
 10
0.0
 20
0.0
 30
0.0
  9
$PUCSORGRIGHT
 10
0.0
 20
0.0
 30
0.0
  9
$PUCSORGFRONT
 10
0.0
 20
0.0
 30
0.0
  9
$PUCSORGBACK
 10
0.0
 20
0.0
 30
0.0
  9
$USERI1
 70
     0
  9
$USERI2
 70
     0
  9
$USERI3
 70
     0
  9
$USERI4
 70
     0
  9
$USERI5
 70
     0
  9
$USERR1
 40
0.0
  9
$USERR2
 40
0.0
  9
$USERR3
 40
0.0
  9
$USERR4
 40
0.0
  9
$USERR5
 40
0.0
  9
$WORLDVIEW
 70
     1
  9
$SHADEDGE
 70
     3
  9
$SHADEDIF
 70
    70
  9
$TILEMODE
 70
     1
  9
$MAXACTVP
 70
    64
  9
$PINSBASE
 10
0.0
 20
0.0
 30
0.0
  9
$PLIMCHECK
 70
     0
  9
$PEXTMIN
 10
1.000000000000000E+20
 20
1.000000000000000E+20
 30
1.000000000000000E+20
  9
$PEXTMAX
 10
-1.000000000000000E+20
 20
-1.000000000000000E+20
 30
-1.000000000000000E+20
  9
$PLIMMIN
 10
0.0
 20
0.0
  9
$PLIMMAX
 10
12.0
 20
9.0
  9
$UNITMODE
 70
     0
  9
$VISRETAIN
 70
     1
  9
$PLINEGEN
 70
     0
  9
$PSLTSCALE
 70
     1
  9
$TREEDEPTH
 70
  3020
  9
$CMLSTYLE
  2
Standard
  9
$CMLJUST
 70
     0
  9
$CMLSCALE
 40
1.0
  9
$PROXYGRAPHICS
 70
     1
  9
$MEASUREMENT
 70
     0
  9
$CELWEIGHT
370
    -1
  9
$ENDCAPS
280
     0
  9
$JOINSTYLE
280
     0
  9
$LWDISPLAY
290
     0
  9
$INSUNITS
 70
     1
  9
$HYPERLINKBASE
  1

  9
$STYLESHEET
  1

  9
$XEDIT
290
     1
  9
$CEPSNTYPE
380
     0
  9
$PSTYLEMODE
290
     1
  9
$FINGERPRINTGUID
  2
{24E1E965-D03A-760A-2237-7FC7A3E61D0A}
  9
$VERSIONGUID
  2
{FAEB1C32-E019-11D5-929B-00C0DF256EC4}
  9
$EXTNAMES
290
     1
  9
$PSVPSCALE
 40
0.0
  9
$OLESTARTUP
290
     0
  9
$SORTENTS
280
   127
  9
$INDEXCTL
280
     0
  9
$HIDETEXT
280
     1
  9
$XCLIPFRAME
290
     0
  9
$HALOGAP
280
     0
  9
$OBSCOLOR
 70
   257
  9
$OBSLTYPE
280
     0
  9
$INTERSECTIONDISPLAY
280
     0
  9
$INTERSECTIONCOLOR
 70
   257
  9
$DIMASSOC
280
     2
  9
$PROJECTNAME
  1

  0
ENDSEC
  0
SECTION
  2
CLASSES
  0
CLASS
  1
ACDBDICTIONARYWDFLT
  2
AcDbDictionaryWithDefault
  3
ObjectDBX Classes
 90
        0
 91
        4
280
     0
281
     0
  0
CLASS
  1
VISUALSTYLE
  2
AcDbVisualStyle
  3
ObjectDBX Classes
 90
     4095
 91
        4
280
     0
281
     0
  0
ENDSEC
  0
SECTION
  2
TABLES
  0
TABLE
  2
VPORT
  5
8
330
0
100
AcDbSymbolTable
 70
     1
  0
VPORT
  5
29
330
8
100
AcDbSymbolTableRecord
100
AcDbViewportTableRecord
  2
*Active
 70
     0
 10
0.0
 20
0.0
 11
1.0
 21
1.0
 12
10.42990654205607
 22
4.5
 13
0.0
 23
0.0
 14
0.5
 24
0.5
 15
0.5
 25
0.5
 16
0.0
 26
0.0
 36
1.0
 17
0.0
 27
0.0
 37
0.0
 40
9.0
 41
1.972972972850329
 42
50.0
 43
0.0
 44
0.0
 50
0.0
 51
0.0
 71
     0
 72
   100
 73
     1
 74
     3
 75
     0
 76
     0
 77
     0
 78
     0
281
     0
 65
     1
110
0.0
120
0.0
130
0.0
111
1.0
121
0.0
131
0.0
112
0.0
122
1.0
132
0.0
 79
     0
146
0.0
  0
ENDTAB
  0
TABLE
  2
LTYPE
  5
5
330
0
100
AcDbSymbolTable
 70
    11
  0
LTYPE
  5
14
330
5
100
AcDbSymbolTableRecord
100
AcDbLinetypeTableRecord
  2
ByBlock
 70
     0
  3

 72
    65
 73
     0
 40
0.0
  0
LTYPE
  5
15
330
5
100
AcDbSymbolTableRecord
100
AcDbLinetypeTableRecord
  2
ByLayer
 70
     0
  3

 72
    65
 73
     0
 40
0.0
  0
LTYPE
  5
16
330
5
100
AcDbSymbolTableRecord
100
AcDbLinetypeTableRecord
  2
Continuous
 70
     0
  3
Solid line
 72
    65
 73
     0
 40
0.0
  0
LTYPE
  5
60
330
5
100
AcDbSymbolTableRecord
100
AcDbLinetypeTableRecord
  2
Stitch_G
 70
     0
  3
Graphite's line style                   
 72
    65
 73
     2
 40
0.1449999958276749
 49
0.0724999979138374
 74
     0
 49
-0.0724999979138374
 74
     0
  0
LTYPE
  5
61
330
5
100
AcDbSymbolTableRecord
100
AcDbLinetypeTableRecord
  2
Cutting_G
 70
     0
  3
Graphite's line style                   
 72
    65
 73
     6
 40
1.467499993741512
 49
1.0
 74
     0
 49
-0.0724999979138374
 74
     0
 49
0.125
 74
     0
 49
-0.0724999979138374
 74
     0
 49
0.125
 74
     0
 49
-0.0724999979138374
 74
     0
  0
LTYPE
  5
62
330
5
100
AcDbSymbolTableRecord
100
AcDbLinetypeTableRecord
  2
Divide_G
 70
     0
  3
Graphite's line style                   
 72
    65
 73
     6
 40
0.7799999937415123
 49
0.5
 74
     0
 49
-0.0724999979138374
 74
     0
 49
0.03125
 74
     0
 49
-0.0724999979138374
 74
     0
 49
0.03125
 74
     0
 49
-0.0724999979138374
 74
     0
  0
LTYPE
  5
63
330
5
100
AcDbSymbolTableRecord
100
AcDbLinetypeTableRecord
  2
Border_G
 70
     0
  3
Graphite's line style                   
 72
    65
 73
     6
 40
1.248749993741512
 49
0.5
 74
     0
 49
-0.0724999979138374
 74
     0
 49
0.5
 74
     0
 49
-0.0724999979138374
 74
     0
 49
0.03125
 74
     0
 49
-0.0724999979138374
 74
     0
  0
LTYPE
  5
64
330
5
100
AcDbSymbolTableRecord
100
AcDbLinetypeTableRecord
  2
Dashdot_G
 70
     0
  3
Graphite's line style                   
 72
    65
 73
     4
 40
0.6762499958276749
 49
0.5
 74
     0
 49
-0.0724999979138374
 74
     0
 49
0.03125
 74
     0
 49
-0.0724999979138374
 74
     0
  0
LTYPE
  5
65
330
5
100
AcDbSymbolTableRecord
100
AcDbLinetypeTableRecord
  2
Phantom_G
 70
     0
  3
Graphite's line style                   
 72
    65
 73
     6
 40
0.9674999937415123
 49
0.5
 74
     0
 49
-0.0724999979138374
 74
     0
 49
0.125
 74
     0
 49
-0.0724999979138374
 74
     0
 49
0.125
 74
     0
 49
-0.0724999979138374
 74
     0
  0
LTYPE
  5
66
330
5
100
AcDbSymbolTableRecord
100
AcDbLinetypeTableRecord
  2
Hidden_G
 70
     0
  3
Graphite's line style                   
 72
    65
 73
     2
 40
0.1974999979138374
 49
0.125
 74
     0
 49
-0.0724999979138374
 74
     0
  0
LTYPE
  5
67
330
5
100
AcDbSymbolTableRecord
100
AcDbLinetypeTableRecord
  2
Dashed_G
 70
     0
  3
Graphite's line style                   
 72
    65
 73
     2
 40
0.375
 49
0.25
 74
     0
 49
-0.125
 74
     0
  0
LTYPE
  5
68
330
5
100
AcDbSymbolTableRecord
100
AcDbLinetypeTableRecord
  2
Center_G
 70
     0
  3
Graphite's line style                   
 72
    65
 73
     4
 40
0.7699999958276749
 49
0.5
 74
     0
 49
-0.0724999979138374
 74
     0
 49
0.125
 74
     0
 49
-0.0724999979138374
 74
     0
  0
LTYPE
  5
69
330
5
100
AcDbSymbolTableRecord
100
AcDbLinetypeTableRecord
  2
Dotted_G
 70
     0
  3

 72
    65
 73
     2
 40
0.1001
 49
0.0001
 74
     0
 49
-0.1
 74
     2
 75
     0
340
0
 46
0.0
 50
0.0
 44
0.0
 45
0.0
  9
.
  0
ENDTAB
  0
TABLE
  2
LAYER
  5
2
330
0
100
AcDbSymbolTable
 70
     5
  0
LAYER
  5
10
330
2
100
AcDbSymbolTableRecord
100
AcDbLayerTableRecord
  2
0
 70
     0
 62
     7
  6
Continuous
370
    -3
390
F
  0
LAYER
  5
6A
330
2
100
AcDbSymbolTableRecord
100
AcDbLayerTableRecord
  2
Layer1
 70
     0
 62
     7
  6
Continuous
370
    -3
390
F
  0
LAYER
  5
6B
330
2
100
AcDbSymbolTableRecord
100
AcDbLayerTableRecord
  2
Construction
 70
     0
 62
     7
  6
Continuous
370
    -3
390
F
  0
LAYER
  5
6C
330
2
100
AcDbSymbolTableRecord
100
AcDbLayerTableRecord
  2
Dimension
 70
     0
 62
     7
  6
Continuous
370
    -3
390
F
  0
LAYER
  5
6D
330
2
100
AcDbSymbolTableRecord
100
AcDbLayerTableRecord
  2
Constraints
 70
     0
 62
     7
  6
Continuous
370
    -3
390
F
  0
ENDTAB
  0
TABLE
  2
STYLE
  5
3
330
0
100
AcDbSymbolTable
 70
     4
  0
STYLE
  5
11
330
3
100
AcDbSymbolTableRecord
100
AcDbTextStyleTableRecord
  2
Standard
 70
     0
 40
0.0
 41
1.0
 50
0.0
 71
     0
 42
0.2
  3
txt
  4

  0
STYLE
  5
3B
330
3
100
AcDbSymbolTableRecord
100
AcDbTextStyleTableRecord
  2
OdaShxStyle
 70
     0
 40
0.0
 41
1.0
 50
0.0
 71
     0
 42
0.2
  3
txt
  4

  0
STYLE
  5
3C
330
3
100
AcDbSymbolTableRecord
100
AcDbTextStyleTableRecord
  2
OdaTtfStyle
 70
     0
 40
0.0
 41
1.0
 50
0.0
 71
     0
 42
0.2
  3
VERDANA.TTF
  4

1001
ACAD
1000
Verdana
1071
       34
  0
STYLE
  5
3D
330
3
100
AcDbSymbolTableRecord
100
AcDbTextStyleTableRecord
  2

 70
     1
 40
0.0
 41
1.0
 50
0.0
 71
     0
 42
22.45
  3
ltypeshp.shx
  4

  0
ENDTAB
  0
TABLE
  2
VIEW
  5
6
330
0
100
AcDbSymbolTable
 70
     0
  0
ENDTAB
  0
TABLE
  2
UCS
  5
7
330
0
100
AcDbSymbolTable
 70
     0
  0
ENDTAB
  0
TABLE
  2
APPID
  5
9
330
0
100
AcDbSymbolTable
 70
     1
  0
APPID
  5
12
330
9
100
AcDbSymbolTableRecord
100
AcDbRegAppTableRecord
  2
ACAD
 70
     0
  0
ENDTAB
  0
TABLE
  2
DIMSTYLE
  5
A
330
0
100
AcDbSymbolTable
 70
     9
100
AcDbDimStyleTable
  0
DIMSTYLE
105
27
330
A
100
AcDbSymbolTableRecord
100
AcDbDimStyleTableRecord
  2
Standard
 70
     0
340
11
  0
DIMSTYLE
105
3E
330
A
100
AcDbSymbolTableRecord
100
AcDbDimStyleTableRecord
  2
OdaDimStyle0
 70
     0
340
11
  0
DIMSTYLE
105
3F
330
A
100
AcDbSymbolTableRecord
100
AcDbDimStyleTableRecord
  2
OdaDimStyle1
 70
     0
340
11
  0
DIMSTYLE
105
40
330
A
100
AcDbSymbolTableRecord
100
AcDbDimStyleTableRecord
  2
OdaDimStyle2
 70
     0
340
11
342
41
  0
DIMSTYLE
105
47
330
A
100
AcDbSymbolTableRecord
100
AcDbDimStyleTableRecord
  2
OdaDimStyle3
 70
     0
340
11
342
48
  0
DIMSTYLE
105
4B
330
A
100
AcDbSymbolTableRecord
100
AcDbDimStyleTableRecord
  2
OdaDimStyle4
 70
     0
340
11
342
4C
  0
DIMSTYLE
105
50
330
A
100
AcDbSymbolTableRecord
100
AcDbDimStyleTableRecord
  2
OdaDimStyle5
 70
     0
340
11
  0
DIMSTYLE
105
51
330
A
100
AcDbSymbolTableRecord
100
AcDbDimStyleTableRecord
  2
OdaDimStyle6
 70
     0
340
11
342
52
  0
DIMSTYLE
105
5A
330
A
100
AcDbSymbolTableRecord
100
AcDbDimStyleTableRecord
  2
OdaDimStyle7
 70
     0
340
11
342
5B
  0
ENDTAB
  0
TABLE
  2
BLOCK_RECORD
  5
1
330
0
100
AcDbSymbolTable
 70
     6
  0
BLOCK_RECORD
  5
1F
330
1
100
AcDbSymbolTableRecord
100
AcDbBlockTableRecord
  2
*Model_Space
340
22
  0
BLOCK_RECORD
  5
1B
330
1
100
AcDbSymbolTableRecord
100
AcDbBlockTableRecord
  2
*Paper_Space
340
1E
  0
BLOCK_RECORD
  5
23
330
1
100
AcDbSymbolTableRecord
100
AcDbBlockTableRecord
  2
*Paper_Space0
340
26
  0
BLOCK_RECORD
  5
41
330
1
100
AcDbSymbolTableRecord
100
AcDbBlockTableRecord
  2
_CLOSEDBLANK
340
0
  0
BLOCK_RECORD
  5
48
330
1
100
AcDbSymbolTableRecord
100
AcDbBlockTableRecord
  2
_NONE
340
0
  0
BLOCK_RECORD
  5
4C
330
1
100
AcDbSymbolTableRecord
100
AcDbBlockTableRecord
  2
_OBLIQUE
340
0
  0
BLOCK_RECORD
  5
52
330
1
100
AcDbSymbolTableRecord
100
AcDbBlockTableRecord
  2
_DOT
340
0
  0
BLOCK_RECORD
  5
5B
330
1
100
AcDbSymbolTableRecord
100
AcDbBlockTableRecord
  2
_DOTBLANK
340
0
  0
ENDTAB
  0
ENDSEC
  0
SECTION
  2
BLOCKS
  0
BLOCK
  5
20
330
1F
100
AcDbEntity
  8
0
100
AcDbBlockBegin
  2
*Model_Space
 70
     0
 10
0.0
 20
0.0
 30
0.0
  3
*Model_Space
  1

  0
ENDBLK
  5
21
330
1F
100
AcDbEntity
  8
0
100
AcDbBlockEnd
  0
BLOCK
  5
1C
330
1B
100
AcDbEntity
 67
     1
  8
0
100
AcDbBlockBegin
  2
*Paper_Space
 70
     0
 10
0.0
 20
0.0
 30
0.0
  3
*Paper_Space
  1

  0
ENDBLK
  5
1D
330
1B
100
AcDbEntity
 67
     1
  8
0
100
AcDbBlockEnd
  0
BLOCK
  5
24
330
23
100
AcDbEntity
  8
0
100
AcDbBlockBegin
  2
*Paper_Space0
 70
     0
 10
0.0
 20
0.0
 30
0.0
  3
*Paper_Space0
  1

  0
ENDBLK
  5
25
330
23
100
AcDbEntity
  8
0
100
AcDbBlockEnd
  0
BLOCK
  5
42
330
41
100
AcDbEntity
  8
0
100
AcDbBlockBegin
  2
_CLOSEDBLANK
 70
     0
 10
0.0
 20
0.0
 30
0.0
  3
_CLOSEDBLANK
  1

  0
LINE
  5
44
330
41
100
AcDbEntity
  8
0
  6
ByBlock
 62
     0
370
    -2
100
AcDbLine
 10
-1.0
 20
0.166667
 30
0.0
 11
0.0
 21
0.0
 31
0.0
  0
LINE
  5
45
330
41
100
AcDbEntity
  8
0
  6
ByBlock
 62
     0
370
    -2
100
AcDbLine
 10
0.0
 20
0.0
 30
0.0
 11
-1.0
 21
-0.166667
 31
0.0
  0
LINE
  5
46
330
41
100
AcDbEntity
  8
0
  6
ByBlock
 62
     0
370
    -2
100
AcDbLine
 10
-1.0
 20
0.166667
 30
0.0
 11
-1.0
 21
-0.166667
 31
0.0
  0
ENDBLK
  5
43
330
41
100
AcDbEntity
  8
0
100
AcDbBlockEnd
  0
BLOCK
  5
49
330
48
100
AcDbEntity
  8
0
100
AcDbBlockBegin
  2
_NONE
 70
     0
 10
0.0
 20
0.0
 30
0.0
  3
_NONE
  1

  0
ENDBLK
  5
4A
330
48
100
AcDbEntity
  8
0
100
AcDbBlockEnd
  0
BLOCK
  5
4D
330
4C
100
AcDbEntity
  8
0
100
AcDbBlockBegin
  2
_OBLIQUE
 70
     0
 10
0.0
 20
0.0
 30
0.0
  3
_OBLIQUE
  1

  0
LINE
  5
4F
330
4C
100
AcDbEntity
  8
0
  6
ByBlock
 62
     0
370
    -2
100
AcDbLine
 10
-0.5
 20
-0.5
 30
0.0
 11
0.5
 21
0.5
 31
0.0
  0
ENDBLK
  5
4E
330
4C
100
AcDbEntity
  8
0
100
AcDbBlockEnd
  0
BLOCK
  5
53
330
52
100
AcDbEntity
  8
0
100
AcDbBlockBegin
  2
_DOT
 70
     0
 10
0.0
 20
0.0
 30
0.0
  3
_DOT
  1

  0
POLYLINE
  5
55
330
52
100
AcDbEntity
  8
0
  6
ByBlock
 62
     0
100
AcDb2dPolyline
 66
     1
 10
0.0
 20
0.0
 30
0.0
 70
     1
 40
0.5
 41
0.5
  0
VERTEX
  5
57
330
55
100
AcDbEntity
  8
0
  6
ByBlock
 62
     0
100
AcDbVertex
100
AcDb2dVertex
 10
-0.25
 20
0.0
 30
0.0
 42
1.0
  0
VERTEX
  5
58
330
55
100
AcDbEntity
  8
0
  6
ByBlock
 62
     0
100
AcDbVertex
100
AcDb2dVertex
 10
0.25
 20
0.0
 30
0.0
 42
1.0
  0
SEQEND
  5
59
330
55
100
AcDbEntity
  8
0
  6
ByBlock
 62
     0
  0
LINE
  5
56
330
52
100
AcDbEntity
  8
0
  6
ByBlock
 62
     0
370
    -2
100
AcDbLine
 10
-0.5
 20
0.0
 30
0.0
 11
-1.0
 21
0.0
 31
0.0
  0
ENDBLK
  5
54
330
52
100
AcDbEntity
  8
0
100
AcDbBlockEnd
  0
BLOCK
  5
5C
330
5B
100
AcDbEntity
  8
0
100
AcDbBlockBegin
  2
_DOTBLANK
 70
     0
 10
0.0
 20
0.0
 30
0.0
  3
_DOTBLANK
  1

  0
CIRCLE
  5
5E
330
5B
100
AcDbEntity
  8
0
  6
ByBlock
 62
     0
370
    -2
100
AcDbCircle
 10
0.0
 20
0.0
 30
0.0
 40
0.5
  0
LINE
  5
5F
330
5B
100
AcDbEntity
  8
0
  6
ByBlock
 62
     0
370
    -2
100
AcDbLine
 10
-0.5
 20
0.0
 30
0.0
 11
-1.0
 21
0.0
 31
0.0
  0
ENDBLK
  5
5D
330
5B
100
AcDbEntity
  8
0
100
AcDbBlockEnd
  0
ENDSEC
  0
SECTION
  2
ENTITIES
  0
LINE
  5
6E
330
1F
100
AcDbEntity
  8
Layer1
 62
     7
370
     9
100
AcDbLine
 10
-5.306283581339463
 20
11.49433333333337
 30
0.0
 11
-5.376283581339464
 21
11.49433333333337
 31
0.0
  0
LINE
  5
6F
330
1F
100
AcDbEntity
  8
Layer1
 62
     7
370
     9
100
AcDbLine
 10
-5.306283581339463
 20
6.678333333333344
 30
0.0
 11
-5.306283581339463
 21
6.494333333333343
 31
0.0
  0
LINE
  5
70
330
1F
100
AcDbEntity
  8
Layer1
 62
     7
370
     9
100
AcDbLine
 10
-5.306283581339463
 20
1.494333333333374
 30
0.0
 11
-5.376283581339464
 21
1.494333333333374
 31
0.0
  0
LINE
  5
71
330
1F
100
AcDbEntity
  8
Layer1
 62
     7
370
    25
100
AcDbLine
 10
-5.306283581339463
 20
11.58633333333337
 30
0.0
 11
-4.866283581339474
 21
11.58633333333337
 31
0.0
  0
LINE
  5
72
330
1F
100
AcDbEntity
  8
Layer1
 62
     7
370
    25
100
AcDbLine
 10
-3.826283581339453
 20
11.58633333333337
 30
0.0
 11
-3.386283581339463
 21
11.58633333333337
 31
0.0
  0
CIRCLE
  5
73
330
1F
100
AcDbEntity
  8
Layer1
 62
     7
370
    25
100
AcDbCircle
 10
-3.628783581339464
 20
12.69849364585519
 30
0.0
 40
0.1875000000000002
  0
CIRCLE
  5
74
330
1F
100
AcDbEntity
  8
Layer1
 62
     7
370
    25
100
AcDbCircle
 10
-5.063783581339463
 20
12.69883333333338
 30
0.0
 40
0.1875000000000002
  0
LINE
  5
75
330
1F
100
AcDbEntity
  8
Layer1
 62
     7
370
     9
100
AcDbLine
 10
-3.316283581339464
 20
1.678333333333375
 30
0.0
 11
-3.386283581339463
 21
1.678333333333375
 31
0.0
  0
LINE
  5
76
330
1F
100
AcDbEntity
  8
Layer1
 62
     7
370
     9
100
AcDbLine
 10
-3.316283581339464
 20
1.494333333333374
 30
0.0
 11
-3.386283581339463
 21
1.494333333333374
 31
0.0
  0
LINE
  5
77
330
1F
100
AcDbEntity
  8
Layer1
 62
     7
370
     9
100
AcDbLine
 10
-3.316283581339464
 20
6.678333333333348
 30
0.0
 11
-3.386283581339463
 21
6.678333333333348
 31
0.0
  0
LINE
  5
78
330
1F
100
AcDbEntity
  8
Layer1
 62
     7
370
     9
100
AcDbLine
 10
-3.386283581339463
 20
6.678333333333348
 30
0.0
 11
-3.386283581339463
 21
6.494333333333347
 31
0.0
  0
LINE
  5
79
330
1F
100
AcDbEntity
  8
Layer1
 62
     7
370
     9
100
AcDbLine
 10
-3.316283581339464
 20
6.494333333333347
 30
0.0
 11
-3.386283581339463
 21
6.494333333333347
 31
0.0
  0
LINE
  5
7A
330
1F
100
AcDbEntity
  8
Layer1
 62
     7
370
     9
100
AcDbLine
 10
-3.386283581339463
 20
11.67833333333338
 30
0.0
 11
-3.386283581339463
 21
11.49433333333337
 31
0.0
  0
LINE
  5
7B
330
1F
100
AcDbEntity
  8
Layer1
 62
     7
370
     9
100
AcDbLine
 10
-3.316283581339464
 20
11.67833333333338
 30
0.0
 11
-3.386283581339463
 21
11.67833333333338
 31
0.0
  0
LINE
  5
7C
330
1F
100
AcDbEntity
  8
Layer1
 62
     7
370
     9
100
AcDbLine
 10
-3.316283581339464
 20
11.49433333333337
 30
0.0
 11
-3.386283581339463
 21
11.49433333333337
 31
0.0
  0
ARC
  5
7D
330
1F
100
AcDbEntity
  8
Layer1
 62
     7
370
     9
100
AcDbCircle
 10
3.566283581339464
 20
14.83333333333339
 30
0.0
 40
0.25
210
0.0
220
0.0
230
-1.0
100
AcDbArc
 50
90.0
 51
180.0
  0
LINE
  5
7E
330
1F
100
AcDbEntity
  8
Layer1
 62
     7
370
     9
100
AcDbLine
 10
-3.316283581339464
 20
14.83333333333339
 30
0.0
 11
-3.316283581339464
 21
14.83333333333339
 31
0.0
  0
LINE
  5
7F
330
1F
100
AcDbEntity
  8
Layer1
 62
     7
370
     9
100
AcDbLine
 10
-3.316283581339464
 20
14.83333333333339
 30
0.0
 11
-3.316283581339464
 21
11.67833333333338
 31
0.0
  0
LINE
  5
80
330
1F
100
AcDbEntity
  8
Layer1
 62
     7
370
     9
100
AcDbLine
 10
-3.316283581339464
 20
11.49433333333337
 30
0.0
 11
-3.316283581339464
 21
6.678333333333346
 31
0.0
  0
LINE
  5
81
330
1F
100
AcDbEntity
  8
Layer1
 62
     7
370
     9
100
AcDbLine
 10
-3.316283581339464
 20
6.494333333333347
 30
0.0
 11
-3.316283581339464
 21
1.678333333333375
 31
0.0
  0
LINE
  5
82
330
1F
100
AcDbEntity
  8
Layer1
 62
     7
370
     9
100
AcDbLine
 10
-3.386283581339463
 20
1.678333333333375
 30
0.0
 11
-3.386283581339463
 21
1.494333333333374
 31
0.0
  0
LINE
  5
83
330
1F
100
AcDbEntity
  8
Layer1
 62
     7
370
     9
100
AcDbLine
 10
-5.376283581339464
 20
1.678333333333375
 30
0.0
 11
-5.376283581339464
 21
6.494333333333347
 31
0.0
  0
LINE
  5
84
330
1F
100
AcDbEntity
  8
Layer1
 62
     7
370
     9
100
AcDbLine
 10
-5.376283581339464
 20
6.678333333333344
 30
0.0
 11
-5.376283581339464
 21
11.49433333333337
 31
0.0
  0
LINE
  5
85
330
1F
100
AcDbEntity
  8
Layer1
 62
     7
370
     9
100
AcDbLine
 10
-5.376283581339464
 20
11.67833333333338
 30
0.0
 11
-5.376283581339464
 21
14.83333333333339
 31
0.0
  0
ARC
  5
86
330
1F
100
AcDbEntity
  8
Layer1
 62
     7
370
     9
100
AcDbCircle
 10
5.126283581339464
 20
14.83333333333339
 30
0.0
 40
0.25
210
0.0
220
0.0
230
-1.0
100
AcDbArc
 50
0.0
 51
90.0
  0
LINE
  5
87
330
1F
100
AcDbEntity
  8
Layer1
 62
     7
370
     9
100
AcDbLine
 10
-5.376283581339464
 20
14.83333333333339
 30
0.0
 11
-5.376283581339464
 21
14.83333333333339
 31
0.0
  0
LINE
  5
88
330
1F
100
AcDbEntity
  8
Layer1
 62
     7
370
     9
100
AcDbLine
 10
-5.306283581339463
 20
11.67833333333338
 30
0.0
 11
-5.306283581339463
 21
11.49433333333337
 31
0.0
  0
LINE
  5
89
330
1F
100
AcDbEntity
  8
Layer1
 62
     7
370
     9
100
AcDbLine
 10
-5.306283581339463
 20
11.67833333333338
 30
0.0
 11
-5.376283581339464
 21
11.67833333333338
 31
0.0
  0
LINE
  5
8A
330
1F
100
AcDbEntity
  8
Layer1
 62
     7
370
     9
100
AcDbLine
 10
-5.306283581339463
 20
6.678333333333344
 30
0.0
 11
-5.376283581339464
 21
6.678333333333344
 31
0.0
  0
LINE
  5
8B
330
1F
100
AcDbEntity
  8
Layer1
 62
     7
370
     9
100
AcDbLine
 10
-5.306283581339463
 20
6.494333333333343
 30
0.0
 11
-5.376283581339464
 21
6.494333333333343
 31
0.0
  0
LINE
  5
8C
330
1F
100
AcDbEntity
  8
Layer1
 62
     7
370
     9
100
AcDbLine
 10
-5.306283581339463
 20
1.678333333333375
 30
0.0
 11
-5.376283581339464
 21
1.678333333333375
 31
0.0
  0
LINE
  5
8D
330
1F
100
AcDbEntity
  8
Layer1
 62
     7
370
     9
100
AcDbLine
 10
-5.306283581339463
 20
1.678333333333375
 30
0.0
 11
-5.306283581339463
 21
1.494333333333374
 31
0.0
  0
ELLIPSE
  5
8E
330
1F
100
AcDbEntity
  8
Layer1
 62
     7
370
    25
100
AcDbEllipse
 10
-4.334465640382096
 20
1.586333333333374
 30
0.0
 11
0.0
 21
-0.2099609375
 31
0.0
210
0.0
220
0.0
230
-1.0
 40
0.6697674418604651
 41
3.505101050002413
 42
5.919676910766968
  0
ELLIPSE
  5
8F
330
1F
100
AcDbEntity
  8
Layer1
 62
     7
370
    25
100
AcDbEllipse
 10
-4.334465640382096
 20
1.586333333333374
 30
0.0
 11
0.0
 21
-0.2099609375
 31
0.0
210
0.0
220
0.0
230
-1.0
 40
0.6697674418604651
 41
3.141592611097091
 42
3.141592710600293
  0
LINE
  5
90
330
1F
100
AcDbEntity
  8
Layer1
 62
     7
370
     9
100
AcDbLine
 10
-5.126283581339464
 20
15.08333333333339
 30
0.0
 11
-3.566283581339464
 21
15.08333333333339
 31
0.0
  0
ARC
  5
91
330
1F
100
AcDbEntity
  8
Layer1
 62
     7
370
     9
100
AcDbCircle
 10
-4.471283581339463
 20
14.71133333333337
 30
0.0
 40
0.1749999999999992
100
AcDbArc
 50
90.00000308638378
 51
269.9999989206461
  0
ARC
  5
92
330
1F
100
AcDbEntity
  8
Layer1
 62
     7
370
     9
100
AcDbCircle
 10
-4.221283581339463
 20
14.71133333333337
 30
0.0
 40
0.1750000000000007
100
AcDbArc
 50
269.9999989206461
 51
90.00000308638378
  0
LINE
  5
93
330
1F
100
AcDbEntity
  8
Layer1
 62
     7
370
    25
100
AcDbLine
 10
-4.471283581339463
 20
14.53633333333337
 30
0.0
 11
-4.221283581339463
 21
14.53633333333337
 31
0.0
  0
LINE
  5
94
330
1F
100
AcDbEntity
  8
Layer1
 62
     7
370
    25
100
AcDbLine
 10
-4.471283581339463
 20
14.88633333333338
 30
0.0
 11
-4.221283581339463
 21
14.88633333333338
 31
0.0
  0
LINE
  5
95
330
1F
100
AcDbEntity
  8
Layer1
 62
     7
370
    25
100
AcDbLine
 10
-3.826283581339453
 20
1.586333333333375
 30
0.0
 11
-4.010283581339452
 21
1.586333333333375
 31
0.0
  0
LINE
  5
96
330
1F
100
AcDbEntity
  8
Layer1
 62
     7
370
    25
100
AcDbLine
 10
-4.866283581339474
 20
1.586333333333375
 30
0.0
 11
-4.682283581339473
 21
1.586333333333375
 31
0.0
  0
LINE
  5
97
330
1F
100
AcDbEntity
  8
Layer1
 62
     7
370
    25
100
AcDbLine
 10
-4.866283581339474
 20
1.678333333333375
 30
0.0
 11
-4.866283581339474
 21
1.494333333333375
 31
0.0
  0
LINE
  5
98
330
1F
100
AcDbEntity
  8
Layer1
 62
     7
370
    25
100
AcDbLine
 10
-4.866283581339474
 20
11.67833333333338
 30
0.0
 11
-4.866283581339474
 21
11.49433333333337
 31
0.0
  0
LINE
  5
99
330
1F
100
AcDbEntity
  8
Layer1
 62
     7
370
    25
100
AcDbLine
 10
-3.826283581339453
 20
11.67833333333338
 30
0.0
 11
-3.826283581339453
 21
11.49433333333337
 31
0.0
  0
LINE
  5
9A
330
1F
100
AcDbEntity
  8
Layer1
 62
     7
370
    25
100
AcDbLine
 10
-4.866283581339474
 20
6.678333333333346
 30
0.0
 11
-4.866283581339474
 21
6.494333333333347
 31
0.0
  0
LINE
  5
9B
330
1F
100
AcDbEntity
  8
Layer1
 62
     7
370
    25
100
AcDbLine
 10
-3.826283581339453
 20
6.678333333333346
 30
0.0
 11
-3.826283581339453
 21
6.494333333333347
 31
0.0
  0
LINE
  5
9C
330
1F
100
AcDbEntity
  8
Layer1
 62
     7
370
    25
100
AcDbLine
 10
-3.826283581339453
 20
1.678333333333375
 30
0.0
 11
-3.826283581339453
 21
1.494333333333375
 31
0.0
  0
LINE
  5
9D
330
1F
100
AcDbEntity
  8
Layer1
 62
     7
370
     9
100
AcDbLine
 10
-4.721283581339463
 20
5.586333333333346
 30
0.0
 11
-3.971283581339463
 21
5.586333333333346
 31
0.0
  0
LINE
  5
9E
330
1F
100
AcDbEntity
  8
Layer1
 62
     7
370
     9
100
AcDbLine
 10
-4.721283581339463
 20
4.586333333333346
 30
0.0
 11
-3.971283581339463
 21
4.586333333333346
 31
0.0
  0
LINE
  5
9F
330
1F
100
AcDbEntity
  8
Layer1
 62
     7
370
     9
100
AcDbLine
 10
-4.721283581339463
 20
7.586333333333346
 30
0.0
 11
-3.971283581339463
 21
7.586333333333346
 31
0.0
  0
LINE
  5
A0
330
1F
100
AcDbEntity
  8
Layer1
 62
     7
370
     9
100
AcDbLine
 10
-4.721283581339463
 20
3.586333333333346
 30
0.0
 11
-3.971283581339463
 21
3.586333333333346
 31
0.0
  0
LINE
  5
A1
330
1F
100
AcDbEntity
  8
Layer1
 62
     7
370
     9
100
AcDbLine
 10
-4.721283581339463
 20
2.586333333333375
 30
0.0
 11
-3.971283581339463
 21
2.586333333333375
 31
0.0
  0
LINE
  5
A2
330
1F
100
AcDbEntity
  8
Layer1
 62
     7
370
     9
100
AcDbLine
 10
-4.721283581339463
 20
0.5863333333333749
 30
0.0
 11
-3.971283581339463
 21
0.5863333333333749
 31
0.0
  0
LINE
  5
A3
330
1F
100
AcDbEntity
  8
Layer1
 62
     7
370
     9
100
AcDbLine
 10
-4.721283581339463
 20
9.586333333333346
 30
0.0
 11
-3.971283581339463
 21
9.586333333333346
 31
0.0
  0
LINE
  5
A4
330
1F
100
AcDbEntity
  8
Layer1
 62
     7
370
     9
100
AcDbLine
 10
-4.721283581339463
 20
10.58633333333337
 30
0.0
 11
-3.971283581339463
 21
10.58633333333337
 31
0.0
  0
LINE
  5
A5
330
1F
100
AcDbEntity
  8
Layer1
 62
     7
370
     9
100
AcDbLine
 10
-4.721283581339463
 20
8.586333333333346
 30
0.0
 11
-3.971283581339463
 21
8.586333333333346
 31
0.0
  0
LINE
  5
A6
330
1F
100
AcDbEntity
  8
Layer1
 62
     7
370
    25
100
AcDbLine
 10
-4.558524825696292
 20
6.793136577110951
 30
0.0
 11
-4.558524825696292
 21
6.379530089555742
 31
0.0
  0
SPLINE
  5
A7
330
1F
100
AcDbEntity
  8
Layer1
 62
     7
370
    25
100
AcDbSpline
210
0.0
220
0.0
230
1.0
 70
     8
 71
     3
 72
    10
 73
     6
 74
     4
 42
0.0000000001
 43
0.0000000001
 44
0.0
 12
0.906265722029874
 22
0.4227084587202757
 32
0.0
 13
0.6172903913338957
 23
0.7867353892935324
 33
0.0
 40
0.0
 40
0.0
 40
0.0
 40
0.0
 40
0.0406184264513415
 40
0.10226574716261
 40
0.1296813370818121
 40
0.1296813370818121
 40
0.1296813370818121
 40
0.1296813370818121
 10
-4.658866622571292
 20
6.713302592735951
 30
0.0
 10
-4.646596260046078
 20
6.719025843549581
 30
0.0
 10
-4.615581947652158
 20
6.733491139186992
 30
0.0
 10
-4.58247802381335
 20
6.762610702260854
 30
0.0
 10
-4.564165952439583
 20
6.785946972175019
 30
0.0
 10
-4.558524825696292
 20
6.793136577110951
 30
0.0
 11
-4.658866622571292
 21
6.713302592735951
 31
0.0
 11
-4.622733810071288
 21
6.73185728023595
 31
0.0
 11
-4.575858810071303
 21
6.771896342735955
 31
0.0
 11
-4.558524825696292
 21
6.793136577110951
 31
0.0
  0
LINE
  5
A8
330
1F
100
AcDbEntity
  8
Layer1
 62
     7
370
    25
100
AcDbLine
 10
-4.453943803065856
 20
4.27392680881337
 30
0.0
 11
-4.255083236220104
 21
4.27392680881337
 31
0.0
  0
LINE
  5
A9
330
1F
100
AcDbEntity
  8
Layer1
 62
     7
370
    25
100
AcDbLine
 10
-4.453943803065856
 20
4.27392680881337
 30
0.0
 11
-4.453943803065856
 21
4.27392680881337
 31
0.0
  0
LINE
  5
AA
330
1F
100
AcDbEntity
  8
Layer1
 62
     7
370
    25
100
AcDbLine
 10
-4.473475053065856
 20
4.094239308813371
 30
0.0
 11
-4.453943803065856
 21
4.27392680881337
 31
0.0
  0
SPLINE
  5
AB
330
1F
100
AcDbEntity
  8
Layer1
 62
     7
370
    25
100
AcDbSpline
210
0.0
220
0.0
230
1.0
 70
     8
 71
     3
 72
    21
 73
    17
 74
    15
 42
0.0000000001
 43
0.0000000001
 44
0.0
 12
0.6584118671175447
 22
0.7526578327758163
 32
0.0
 13
-0.3686158934368348
 23
0.9295818001153874
 33
0.0
 40
0.0
 40
0.0
 40
0.0
 40
0.0
 40
0.0281103412708912
 40
0.0885098361840101
 40
0.1500729822543841
 40
0.211496529823423
 40
0.2685618417534338
 40
0.3280787499248987
 40
0.3757866961899561
 40
0.4327479934558417
 40
0.4904708824927659
 40
0.5488060836375955
 40
0.6118026982189876
 40
0.6694139747826422
 40
0.7092226909596762
 40
0.7439634832981153
 40
0.7439634832981153
 40
0.7439634832981153
 40
0.7439634832981153
 10
-4.473475053065856
 20
4.094239308813371
 30
0.0
 10
-4.46730565897203
 20
4.10129179832655
 30
0.0
 10
-4.447443591934184
 20
4.123996948513909
 30
0.0
 10
-4.395420155898925
 20
4.13563954863401
 30
0.0
 10
-4.334932876870545
 20
4.136087512609143
 30
0.0
 10
-4.274824556334184
 20
4.120249274727398
 30
0.0
 10
-4.231275035311059
 20
4.075975065513196
 30
0.0
 10
-4.214509667735404
 20
4.022237408250559
 30
0.0
 10
-4.21432728586737
 20
3.967006102421289
 30
0.0
 10
-4.23133481208575
 20
3.914175159059956
 30
0.0
 10
-4.273543155918761
 20
3.870619560899901
 30
0.0
 10
-4.333541085184265
 20
3.856198643667608
 30
0.0
 10
-4.39282761420454
 20
3.856548227118523
 30
0.0
 10
-4.447235045092716
 20
3.868215902884767
 30
0.0
 10
-4.479508297704544
 20
3.901020122922028
 30
0.0
 10
-4.488737633663678
 20
3.924294818553571
 30
0.0
 10
-4.493006303065856
 20
3.935059621313371
 30
0.0
 11
-4.473475053065856
 21
4.094239308813371
 31
0.0
 11
-4.453598040131737
 21
4.114116321747483
 31
0.0
 11
-4.396326615565865
 21
4.133301808813374
 31
0.0
 11
-4.334763469495491
 21
4.13330180881337
 31
0.0
 11
-4.276209428065856
 21
4.114747121313371
 31
0.0
 11
-4.235858159029619
 21
4.074395852277136
 31
0.0
 11
-4.216639115565862
 21
4.018067433813373
 31
0.0
 11
-4.216639115565859
 21
3.970359487548316
 31
0.0
 11
-4.235193803065858
 21
3.916504933813372
 31
0.0
 11
-4.276010049333546
 21
3.875688687545684
 31
0.0
 11
-4.331873490565859
 21
3.858887746313372
 31
0.0
 11
-4.394870105147251
 21
3.858887746313372
 31
0.0
 11
-4.45003755306586
 21
3.875489308813374
 31
0.0
 11
-4.478186566224969
 21
3.903638321972488
 31
0.0
 11
-4.493006303065856
 21
3.935059621313371
 31
0.0
  0
LINE
  5
AC
330
1F
100
AcDbEntity
  8
Layer1
 62
     7
370
    25
100
AcDbLine
 10
-4.592924750803604
 20
9.289886143669822
 30
0.0
 11
-4.592924750803604
 21
8.876279656114614
 31
0.0
  0
SPLINE
  5
AD
330
1F
100
AcDbEntity
  8
Layer1
 62
     7
370
    25
100
AcDbSpline
210
0.0
220
0.0
230
1.0
 70
     8
 71
     3
 72
    10
 73
     6
 74
     4
 42
0.0000000001
 43
0.0000000001
 44
0.0
 12
0.9062657220298239
 22
0.4227084587203833
 32
0.0
 13
0.6172903913339901
 23
0.7867353892934582
 33
0.0
 40
0.0
 40
0.0
 40
0.0
 40
0.0
 40
0.0406184264513403
 40
0.1022657471626113
 40
0.1296813370818114
 40
0.1296813370818114
 40
0.1296813370818114
 40
0.1296813370818114
 10
-4.693266547678604
 20
9.210052159294822
 30
0.0
 10
-4.680996185153391
 20
9.215775410108453
 30
0.0
 10
-4.64998187275947
 20
9.230240705745864
 30
0.0
 10
-4.616877948920667
 20
9.259360268819734
 30
0.0
 10
-4.598565877546896
 20
9.282696538733891
 30
0.0
 10
-4.592924750803604
 20
9.289886143669822
 30
0.0
 11
-4.693266547678604
 21
9.210052159294822
 31
0.0
 11
-4.657133735178602
 21
9.228606846794822
 31
0.0
 11
-4.610258735178615
 21
9.268645909294829
 31
0.0
 11
-4.592924750803604
 21
9.289886143669822
 31
0.0
  0
LINE
  5
AE
330
1F
100
AcDbEntity
  8
Layer1
 62
     7
370
    25
100
AcDbLine
 10
-4.315336860178604
 20
9.290130284294822
 30
0.0
 11
-4.116476293332851
 21
9.290130284294822
 31
0.0
  0
LINE
  5
AF
330
1F
100
AcDbEntity
  8
Layer1
 62
     7
370
    25
100
AcDbLine
 10
-4.315336860178604
 20
9.290130284294822
 30
0.0
 11
-4.315336860178604
 21
9.290130284294822
 31
0.0
  0
LINE
  5
B0
330
1F
100
AcDbEntity
  8
Layer1
 62
     7
370
    25
100
AcDbLine
 10
-4.334868110178604
 20
9.110442784294822
 30
0.0
 11
-4.315336860178604
 21
9.290130284294822
 31
0.0
  0
SPLINE
  5
B1
330
1F
100
AcDbEntity
  8
Layer1
 62
     7
370
    25
100
AcDbSpline
210
0.0
220
0.0
230
1.0
 70
     8
 71
     3
 72
    21
 73
    17
 74
    15
 42
0.0000000001
 43
0.0000000001
 44
0.0
 12
0.6584118671174519
 22
0.7526578327758973
 32
0.0
 13
-0.3686158934368872
 23
0.9295818001153667
 33
0.0
 40
0.0
 40
0.0
 40
0.0
 40
0.0
 40
0.0281103412708919
 40
0.0885098361840113
 40
0.1500729822543853
 40
0.211496529823425
 40
0.2685618417534364
 40
0.3280787499248988
 40
0.3757866961899571
 40
0.432747993455844
 40
0.4904708824927685
 40
0.5488060836375994
 40
0.6118026982189915
 40
0.669413974782646
 40
0.7092226909596803
 40
0.7439634832981187
 40
0.7439634832981187
 40
0.7439634832981187
 40
0.7439634832981187
 10
-4.334868110178604
 20
9.110442784294822
 30
0.0
 10
-4.328698716084778
 20
9.117495273808002
 30
0.0
 10
-4.308836649046936
 20
9.140200423995363
 30
0.0
 10
-4.256813213011672
 20
9.15184302411546
 30
0.0
 10
-4.196325933983293
 20
9.152290988090595
 30
0.0
 10
-4.136217613446931
 20
9.136452750208846
 30
0.0
 10
-4.092668092423807
 20
9.092178540994649
 30
0.0
 10
-4.07590272484815
 20
9.038440883732012
 30
0.0
 10
-4.075720342980119
 20
8.983209577902741
 30
0.0
 10
-4.092727869198497
 20
8.930378634541407
 30
0.0
 10
-4.134936213031507
 20
8.88682303638135
 30
0.0
 10
-4.194934142297013
 20
8.87240211914906
 30
0.0
 10
-4.254220671317287
 20
8.87275170259997
 30
0.0
 10
-4.308628102205465
 20
8.884419378366218
 30
0.0
 10
-4.340901354817293
 20
8.917223598403476
 30
0.0
 10
-4.350130690776425
 20
8.94049829403502
 30
0.0
 10
-4.354399360178604
 20
8.95126309679482
 30
0.0
 11
-4.334868110178604
 21
9.110442784294822
 31
0.0
 11
-4.314991097244486
 21
9.130319797228935
 31
0.0
 11
-4.257719672678613
 21
9.149505284294825
 31
0.0
 11
-4.196156526608239
 21
9.14950528429482
 31
0.0
 11
-4.137602485178603
 21
9.130950596794822
 31
0.0
 11
-4.097251216142366
 21
9.090599327758586
 31
0.0
 11
-4.078032172678609
 21
9.034270909294825
 31
0.0
 11
-4.078032172678606
 21
8.986562963029767
 31
0.0
 11
-4.096586860178605
 21
8.932708409294822
 31
0.0
 11
-4.137403106446293
 21
8.891892163027133
 31
0.0
 11
-4.193266547678607
 21
8.87509122179482
 31
0.0
 11
-4.256263162259999
 21
8.875091221794822
 31
0.0
 11
-4.311430610178608
 21
8.891692784294824
 31
0.0
 11
-4.339579623337717
 21
8.919841797453937
 31
0.0
 11
-4.354399360178604
 21
8.95126309679482
 31
0.0
  0
LINE
  5
B2
330
1F
100
AcDbEntity
  8
Layer1
 62
     7
370
    25
100
AcDbLine
 10
-4.298508778646798
 20
-5.706671150774889
 30
0.0
 11
-4.099648211801044
 21
-5.706671150774889
 31
0.0
  0
LINE
  5
B3
330
1F
100
AcDbEntity
  8
Layer1
 62
     7
370
    25
100
AcDbLine
 10
-4.298508778646798
 20
-5.706671150774889
 30
0.0
 11
-4.298508778646798
 21
-5.706671150774889
 31
0.0
  0
LINE
  5
B4
330
1F
100
AcDbEntity
  8
Layer1
 62
     7
370
    25
100
AcDbLine
 10
-4.318040028646798
 20
-5.886358650774889
 30
0.0
 11
-4.298508778646798
 21
-5.706671150774889
 31
0.0
  0
SPLINE
  5
B5
330
1F
100
AcDbEntity
  8
Layer1
 62
     7
370
    25
100
AcDbSpline
210
0.0
220
0.0
230
1.0
 70
     8
 71
     3
 72
    21
 73
    17
 74
    15
 42
0.0000000001
 43
0.0000000001
 44
0.0
 12
0.6584118671174519
 22
0.7526578327758973
 32
0.0
 13
-0.3686158934368872
 23
0.9295818001153667
 33
0.0
 40
0.0
 40
0.0
 40
0.0
 40
0.0
 40
0.0281103412708925
 40
0.0885098361840116
 40
0.1500729822543848
 40
0.2114965298234245
 40
0.2685618417534353
 40
0.3280787499249019
 40
0.3757866961899592
 40
0.4327479934558453
 40
0.4904708824927705
 40
0.5488060836376009
 40
0.6118026982189929
 40
0.6694139747826471
 40
0.709222690959682
 40
0.7439634832981205
 40
0.7439634832981205
 40
0.7439634832981205
 40
0.7439634832981205
 10
-4.318040028646798
 20
-5.886358650774889
 30
0.0
 10
-4.311870634552972
 20
-5.879306161261709
 30
0.0
 10
-4.292008567515131
 20
-5.856601011074347
 30
0.0
 10
-4.239985131479866
 20
-5.844958410954257
 30
0.0
 10
-4.179497852451487
 20
-5.844510446979113
 30
0.0
 10
-4.119389531915124
 20
-5.860348684860861
 30
0.0
 10
-4.075840010891997
 20
-5.904622894075061
 30
0.0
 10
-4.059074643316345
 20
-5.958360551337702
 30
0.0
 10
-4.058892261448311
 20
-6.013591857166972
 30
0.0
 10
-4.075899787666692
 20
-6.066422800528303
 30
0.0
 10
-4.1181081314997
 20
-6.10997839868836
 30
0.0
 10
-4.178106060765206
 20
-6.124399315920653
 30
0.0
 10
-4.237392589785481
 20
-6.124049732469735
 30
0.0
 10
-4.291800020673659
 20
-6.112382056703495
 30
0.0
 10
-4.324073273285485
 20
-6.079577836666232
 30
0.0
 10
-4.333302609244618
 20
-6.05630314103469
 30
0.0
 10
-4.337571278646798
 20
-6.04553833827489
 30
0.0
 11
-4.318040028646798
 21
-5.886358650774889
 31
0.0
 11
-4.29816301571268
 21
-5.866481637840774
 31
0.0
 11
-4.240891591146806
 21
-5.847296150774888
 31
0.0
 11
-4.179328445076433
 21
-5.847296150774889
 31
0.0
 11
-4.120774403646797
 21
-5.865850838274887
 31
0.0
 11
-4.08042313461056
 21
-5.906202107311122
 31
0.0
 11
-4.061204091146802
 21
-5.962530525774887
 31
0.0
 11
-4.061204091146799
 21
-6.010238472039944
 31
0.0
 11
-4.079758778646799
 21
-6.064093025774889
 31
0.0
 11
-4.120575024914486
 21
-6.104909272042578
 31
0.0
 11
-4.1764384661468
 21
-6.12171021327489
 31
0.0
 11
-4.239435080728192
 21
-6.121710213274889
 31
0.0
 11
-4.294602528646801
 21
-6.105108650774888
 31
0.0
 11
-4.322751541805911
 21
-6.076959637615773
 31
0.0
 11
-4.337571278646798
 21
-6.04553833827489
 31
0.0
  0
LINE
  5
B6
330
1F
100
AcDbEntity
  8
Layer1
 62
     7
370
    25
100
AcDbLine
 10
-4.576096669271798
 20
-5.706915291399889
 30
0.0
 11
-4.576096669271798
 21
-6.120521778955097
 31
0.0
  0
SPLINE
  5
B7
330
1F
100
AcDbEntity
  8
Layer1
 62
     7
370
    25
100
AcDbSpline
210
0.0
220
0.0
230
1.0
 70
     8
 71
     3
 72
    10
 73
     6
 74
     4
 42
0.0000000001
 43
0.0000000001
 44
0.0
 12
0.9062657220298239
 22
0.4227084587203833
 32
0.0
 13
0.6172903913339901
 23
0.7867353892934582
 33
0.0
 40
0.0
 40
0.0
 40
0.0
 40
0.0
 40
0.0406184264513415
 40
0.1022657471626084
 40
0.1296813370818119
 40
0.1296813370818119
 40
0.1296813370818119
 40
0.1296813370818119
 10
-4.676438466146798
 20
-5.786749275774889
 30
0.0
 10
-4.664168103621584
 20
-5.781026024961258
 30
0.0
 10
-4.633153791227666
 20
-5.766560729323846
 30
0.0
 10
-4.600049867388855
 20
-5.737441166249984
 30
0.0
 10
-4.58173779601509
 20
-5.71410489633582
 30
0.0
 10
-4.576096669271798
 20
-5.706915291399889
 30
0.0
 11
-4.676438466146798
 21
-5.786749275774889
 31
0.0
 11
-4.640305653646795
 21
-5.768194588274888
 31
0.0
 11
-4.593430653646808
 21
-5.728155525774886
 31
0.0
 11
-4.576096669271798
 21
-5.706915291399889
 31
0.0
  0
LINE
  5
B8
330
1F
100
AcDbEntity
  8
Layer1
 62
     7
370
    25
100
AcDbLine
 10
-4.866283581339474
 20
-3.979666666666683
 30
0.0
 11
-4.866283581339474
 21
-4.163666666666682
 31
0.0
  0
LINE
  5
B9
330
1F
100
AcDbEntity
  8
Layer1
 62
     7
370
     9
100
AcDbLine
 10
-3.316283581339464
 20
-4.163666666666682
 30
0.0
 11
-3.316283581339464
 21
-8.321666666666568
 31
0.0
  0
LINE
  5
BA
330
1F
100
AcDbEntity
  8
Layer1
 62
     7
370
     9
100
AcDbLine
 10
-3.316283581339464
 20
-4.163666666666687
 30
0.0
 11
-3.386283581339463
 21
-4.163666666666687
 31
0.0
  0
LINE
  5
BB
330
1F
100
AcDbEntity
  8
Layer1
 62
     7
370
     9
100
AcDbLine
 10
-3.316283581339464
 20
-3.979666666666686
 30
0.0
 11
-3.386283581339463
 21
-3.979666666666686
 31
0.0
  0
LINE
  5
BC
330
1F
100
AcDbEntity
  8
Layer1
 62
     7
370
     9
100
AcDbLine
 10
-3.386283581339463
 20
-3.979666666666686
 30
0.0
 11
-3.386283581339463
 21
-4.163666666666687
 31
0.0
  0
LINE
  5
BD
330
1F
100
AcDbEntity
  8
Layer1
 62
     7
370
     9
100
AcDbLine
 10
-3.316283581339464
 20
-8.505666666666569
 30
0.0
 11
-3.386283581339463
 21
-8.505666666666569
 31
0.0
  0
LINE
  5
BE
330
1F
100
AcDbEntity
  8
Layer1
 62
     7
370
     9
100
AcDbLine
 10
-3.386283581339463
 20
-8.321666666666568
 30
0.0
 11
-3.386283581339463
 21
-8.505666666666569
 31
0.0
  0
LINE
  5
BF
330
1F
100
AcDbEntity
  8
Layer1
 62
     7
370
     9
100
AcDbLine
 10
-3.316283581339464
 20
-8.321666666666568
 30
0.0
 11
-3.386283581339463
 21
-8.321666666666568
 31
0.0
  0
LINE
  5
C0
330
1F
100
AcDbEntity
  8
Layer1
 62
     7
370
     9
100
AcDbLine
 10
-5.306283581339463
 20
-8.321666666666568
 30
0.0
 11
-5.306283581339463
 21
-8.505666666666569
 31
0.0
  0
LINE
  5
C1
330
1F
100
AcDbEntity
  8
Layer1
 62
     7
370
     9
100
AcDbLine
 10
-5.306283581339463
 20
-8.321666666666568
 30
0.0
 11
-5.376283581339464
 21
-8.321666666666568
 31
0.0
  0
LINE
  5
C2
330
1F
100
AcDbEntity
  8
Layer1
 62
     7
370
     9
100
AcDbLine
 10
-5.306283581339463
 20
-8.505666666666569
 30
0.0
 11
-5.376283581339464
 21
-8.505666666666569
 31
0.0
  0
LINE
  5
C3
330
1F
100
AcDbEntity
  8
Layer1
 62
     7
370
     9
100
AcDbLine
 10
-5.306283581339463
 20
-4.163666666666681
 30
0.0
 11
-5.376283581339464
 21
-4.163666666666681
 31
0.0
  0
LINE
  5
C4
330
1F
100
AcDbEntity
  8
Layer1
 62
     7
370
     9
100
AcDbLine
 10
-5.306283581339463
 20
-3.979666666666683
 30
0.0
 11
-5.376283581339464
 21
-3.979666666666683
 31
0.0
  0
LINE
  5
C5
330
1F
100
AcDbEntity
  8
Layer1
 62
     7
370
     9
100
AcDbLine
 10
-5.306283581339463
 20
-3.979666666666683
 30
0.0
 11
-5.306283581339463
 21
-4.163666666666681
 31
0.0
  0
LINE
  5
C6
330
1F
100
AcDbEntity
  8
Layer1
 62
     7
370
     9
100
AcDbLine
 10
-5.376283581339464
 20
-8.321666666666568
 30
0.0
 11
-5.376283581339464
 21
-4.163666666666682
 31
0.0
  0
SPLINE
  5
C7
330
1F
100
AcDbEntity
  8
Layer1
 62
     7
370
    25
100
AcDbSpline
210
0.0
220
0.0
230
1.0
 70
    24
 71
     3
 72
     8
 73
     4
 74
     2
 42
0.0000000001
 43
0.0000000001
 44
0.0
 12
1.0
 22
0.0
 32
0.0
 13
1.0
 23
0.0
 33
0.0
 40
0.0
 40
0.0
 40
0.0
 40
0.0
 40
0.2777444886008027
 40
0.2777444886008027
 40
0.2777444886008027
 40
0.2777444886008027
 10
-4.679267860775566
 20
11.37751769358743
 30
0.0
 10
-4.586686364575298
 20
11.37751769358743
 30
0.0
 10
-4.494104868375031
 20
11.37751769358743
 30
0.0
 10
-4.401523372174763
 20
11.37751769358743
 30
0.0
 11
-4.679267860775566
 21
11.37751769358743
 31
0.0
 11
-4.401523372174763
 21
11.37751769358743
 31
0.0
  0
SPLINE
  5
C8
330
1F
100
AcDbEntity
  8
Layer1
 62
     7
370
    25
100
AcDbSpline
210
0.0
220
0.0
230
1.0
 70
     8
 71
     3
 72
    19
 73
    15
 74
    13
 42
0.0000000001
 43
0.0000000001
 44
0.0
 12
-0.06713389553505771
 22
0.9977439752112203
 32
0.0
 13
-0.7428311538039354
 23
-0.6694788099247907
 33
0.0
 40
0.0
 40
0.0
 40
0.0
 40
0.0
 40
0.0203663361631552
 40
0.0606753241079605
 40
0.0903956613666999
 40
0.1338293370857856
 40
0.2119378453521429
 40
0.2591216084502187
 40
0.2896100515145547
 40
0.3318761075689947
 40
0.3720917990168748
 40
0.4147661642259486
 40
0.486853412405481
 40
0.7655905069857611
 40
0.7655905069857611
 40
0.7655905069857611
 40
0.7655905069857611
 10
-4.659905346029616
 20
11.69570833333337
 30
0.0
 10
-4.660361103191086
 20
11.70248179640135
 30
0.0
 10
-4.661746511908829
 20
11.72307174128099
 30
0.0
 10
-4.645485769339385
 20
11.75071104728744
 30
0.0
 10
-4.61894410286878
 20
11.7775806476704
 30
0.0
 10
-4.573034610020785
 20
11.80126599620267
 30
0.0
 10
-4.513108558077162
 20
11.80081493570333
 30
0.0
 10
-4.465852845102373
 20
11.77682780512479
 30
0.0
 10
-4.437216784668584
 20
11.74841389360802
 30
0.0
 10
-4.419549492300572
 20
11.71384817173926
 30
0.0
 10
-4.419461030988041
 20
11.67028999997312
 30
0.0
 10
-4.444275457139162
 20
11.62388706703636
 30
0.0
 10
-4.522477300198166
 20
11.51882565927724
 30
0.0
 10
-4.61024966158389
 20
11.43972055304126
 30
0.0
 10
-4.679267860775566
 20
11.37751769358743
 30
0.0
 11
-4.659905346029616
 21
11.69570833333337
 31
0.0
 11
-4.659905346029622
 21
11.71607466949653
 31
0.0
 11
-4.642327221029615
 21
11.75234895833337
 31
0.0
 11
-4.62131176901481
 21
11.77336441034818
 31
0.0
 11
-4.582756908529612
 21
11.79336458333337
 31
0.0
 11
-4.504648400263255
 21
11.79336458333337
 31
0.0
 11
-4.462639721029616
 21
11.77188020833337
 31
0.0
 11
-4.441081136191004
 21
11.75032162349476
 31
0.0
 11
-4.422600658529607
 21
11.71230989583337
 31
0.0
 11
-4.422600658529613
 21
11.67209420438549
 31
0.0
 11
-4.440178783529612
 21
11.63320833333337
 31
0.0
 11
-4.482170971029608
 21
11.57461458333337
 31
0.0
 11
-4.679267860775566
 21
11.37751769358743
 31
0.0
  0
ELLIPSE
  5
C9
330
1F
100
AcDbEntity
  8
Layer1
 62
     7
370
    25
100
AcDbEllipse
 10
-4.145256908529616
 20
11.58633333333337
 30
0.0
 11
0.0
 21
-0.2099609375
 31
0.0
210
0.0
220
0.0
230
-1.0
 40
0.6697674418604651
 41
0.3635083964126355
 42
2.778084257177158
  0
ELLIPSE
  5
CA
330
1F
100
AcDbEntity
  8
Layer1
 62
     7
370
    25
100
AcDbEllipse
 10
-4.145256908529616
 20
11.58633333333337
 30
0.0
 11
0.0
 21
-0.2099609375
 31
0.0
210
0.0
220
0.0
230
-1.0
 40
0.6697674418604651
 41
3.505101050002413
 42
5.919676910766968
  0
ELLIPSE
  5
CB
330
1F
100
AcDbEntity
  8
Layer1
 62
     7
370
    25
100
AcDbEllipse
 10
-4.145256908529616
 20
11.58633333333337
 30
0.0
 11
0.0
 21
-0.2099609375
 31
0.0
210
0.0
220
0.0
230
-1.0
 40
0.6697674418604651
 41
3.141592611097091
 42
3.141592710600293
  0
ELLIPSE
  5
CC
330
1F
100
AcDbEntity
  8
Layer1
 62
     7
370
    25
100
AcDbEllipse
 10
-4.199149825696292
 20
6.586333333333346
 30
0.0
 11
0.0
 21
-0.2099609375
 31
0.0
210
0.0
220
0.0
230
-1.0
 40
0.6697674418604651
 41
3.505101050002413
 42
5.919676910766968
  0
ELLIPSE
  5
CD
330
1F
100
AcDbEntity
  8
Layer1
 62
     7
370
    25
100
AcDbEllipse
 10
-4.199149825696292
 20
6.586333333333346
 30
0.0
 11
0.0
 21
-0.2099609375
 31
0.0
210
0.0
220
0.0
230
-1.0
 40
0.6697674418604651
 41
0.3635083964126355
 42
2.778084257177158
  0
ELLIPSE
  5
CE
330
1F
100
AcDbEntity
  8
Layer1
 62
     7
370
    25
100
AcDbEllipse
 10
-4.334465640382096
 20
1.586333333333374
 30
0.0
 11
0.0
 21
-0.2099609375
 31
0.0
210
0.0
220
0.0
230
-1.0
 40
0.6697674418604651
 41
0.3635083964126355
 42
2.778084257177158
  0
LINE
  5
CF
330
1F
100
AcDbEntity
  8
Layer1
 62
     7
370
     9
100
AcDbLine
 10
-3.316283581339464
 20
1.494333333333375
 30
0.0
 11
-3.316283581339464
 21
-3.979666666666686
 31
0.0
  0
LINE
  5
D0
330
1F
100
AcDbEntity
  8
Layer1
 62
     7
370
     9
100
AcDbLine
 10
-5.376283581339464
 20
-3.979666666666683
 30
0.0
 11
-5.376283581339464
 21
1.494333333333375
 31
0.0
  0
SPLINE
  5
D1
330
1F
100
AcDbEntity
  8
Layer1
 62
     7
370
    25
100
AcDbSpline
210
0.0
220
0.0
230
1.0
 70
    24
 71
     3
 72
     8
 73
     4
 74
     2
 42
0.0000000001
 43
0.0000000001
 44
0.0
 12
1.0
 22
0.0
 32
0.0
 13
1.0
 23
0.0
 33
0.0
 40
0.0
 40
0.0
 40
0.0
 40
0.0
 40
0.2777444886008027
 40
0.2777444886008027
 40
0.2777444886008027
 40
0.2777444886008027
 10
-4.670518805828675
 20
-8.622482306412516
 30
0.0
 10
-4.577937309628408
 20
-8.622482306412516
 30
0.0
 10
-4.48535581342814
 20
-8.622482306412516
 30
0.0
 10
-4.392774317227873
 20
-8.622482306412516
 30
0.0
 11
-4.670518805828675
 21
-8.622482306412516
 31
0.0
 11
-4.392774317227873
 21
-8.622482306412516
 31
0.0
  0
SPLINE
  5
D2
330
1F
100
AcDbEntity
  8
Layer1
 62
     7
370
    25
100
AcDbSpline
210
0.0
220
0.0
230
1.0
 70
     8
 71
     3
 72
    19
 73
    15
 74
    13
 42
0.0000000001
 43
0.0000000001
 44
0.0
 12
-0.06713389553505771
 22
0.9977439752112203
 32
0.0
 13
-0.7428311538039354
 23
-0.6694788099247907
 33
0.0
 40
0.0
 40
0.0
 40
0.0
 40
0.0
 40
0.0203663361631534
 40
0.0606753241079619
 40
0.0903956613667
 40
0.1338293370857858
 40
0.2119378453521431
 40
0.2591216084502197
 40
0.2896100515145582
 40
0.3318761075689934
 40
0.3720917990168771
 40
0.4147661642259513
 40
0.4868534124054836
 40
0.7655905069857631
 40
0.7655905069857631
 40
0.7655905069857631
 40
0.7655905069857631
 10
-4.651156291082725
 20
-8.304291666666568
 30
0.0
 10
-4.651612048244195
 20
-8.297518203598598
 30
0.0
 10
-4.652997456961938
 20
-8.276928258718952
 30
0.0
 10
-4.636736714392494
 20
-8.249288952712506
 30
0.0
 10
-4.610195047921888
 20
-8.222419352329549
 30
0.0
 10
-4.564285555073897
 20
-8.198734003797275
 30
0.0
 10
-4.504359503130268
 20
-8.199185064296604
 30
0.0
 10
-4.457103790155482
 20
-8.223172194875147
 30
0.0
 10
-4.428467729721695
 20
-8.251586106391928
 30
0.0
 10
-4.41080043735368
 20
-8.286151828260678
 30
0.0
 10
-4.410711976041149
 20
-8.329710000026827
 30
0.0
 10
-4.435526402192273
 20
-8.37611293296358
 30
0.0
 10
-4.513728245251277
 20
-8.481174340722704
 30
0.0
 10
-4.601500606637
 20
-8.560279446958683
 30
0.0
 10
-4.670518805828675
 20
-8.622482306412516
 30
0.0
 11
-4.651156291082725
 21
-8.304291666666568
 31
0.0
 11
-4.651156291082731
 21
-8.283925330503415
 31
0.0
 11
-4.633578166082724
 21
-8.24765104166657
 31
0.0
 11
-4.612562714067918
 21
-8.226635589651766
 31
0.0
 11
-4.574007853582722
 21
-8.20663541666657
 31
0.0
 11
-4.495899345316364
 21
-8.206635416666568
 31
0.0
 11
-4.453890666082725
 21
-8.228119791666568
 31
0.0
 11
-4.432332081244113
 21
-8.249678376505184
 31
0.0
 11
-4.413851603582716
 21
-8.287690104166568
 31
0.0
 11
-4.413851603582723
 21
-8.327905795614452
 31
0.0
 11
-4.431429728582723
 21
-8.366791666666568
 31
0.0
 11
-4.473421916082718
 21
-8.42538541666657
 31
0.0
 11
-4.670518805828675
 21
-8.622482306412516
 31
0.0
  0
ELLIPSE
  5
D3
330
1F
100
AcDbEntity
  8
Layer1
 62
     7
370
    25
100
AcDbEllipse
 10
-4.136507853582725
 20
-8.413666666666568
 30
0.0
 11
0.0
 21
-0.2099609375
 31
0.0
210
0.0
220
0.0
230
-1.0
 40
0.6697674418604651
 41
0.3635083964126355
 42
2.778084257177158
  0
ELLIPSE
  5
D4
330
1F
100
AcDbEntity
  8
Layer1
 62
     7
370
    25
100
AcDbEllipse
 10
-4.136507853582725
 20
-8.413666666666568
 30
0.0
 11
0.0
 21
-0.2099609375
 31
0.0
210
0.0
220
0.0
230
-1.0
 40
0.6697674418604651
 41
3.505101050002413
 42
5.919676910766968
  0
ARC
  5
D5
330
1F
100
AcDbEntity
  8
Layer1
 62
     7
370
    25
100
AcDbCircle
 10
-3.566283581339464
 20
-8.663666666666682
 30
0.0
 40
0.25
100
AcDbArc
 50
270.0
 51
0.0
  0
LINE
  5
D6
330
1F
100
AcDbEntity
  8
Layer1
 62
     7
370
     9
100
AcDbLine
 10
-3.316283581339464
 20
-8.505666666666569
 30
0.0
 11
-3.316283581339464
 21
-8.663666666666682
 31
0.0
  0
LINE
  5
D7
330
1F
100
AcDbEntity
  8
Layer1
 62
     7
370
     9
100
AcDbLine
 10
-3.566283581339464
 20
-8.913666666666682
 30
0.0
 11
-5.126283581339464
 21
-8.913666666666682
 31
0.0
  0
ARC
  5
D8
330
1F
100
AcDbEntity
  8
Layer1
 62
     7
370
    25
100
AcDbCircle
 10
-5.126283581339464
 20
-8.663666666666682
 30
0.0
 40
0.25
100
AcDbArc
 50
180.0
 51
270.0
  0
LINE
  5
D9
330
1F
100
AcDbEntity
  8
Layer1
 62
     7
370
     9
100
AcDbLine
 10
-5.376283581339464
 20
-8.663666666666682
 30
0.0
 11
-5.376283581339464
 21
-8.505666666666569
 31
0.0
  0
LINE
  5
DA
330
1F
100
AcDbEntity
  8
Layer1
 62
     7
370
    25
100
AcDbLine
 10
-3.826283581339453
 20
-3.979666666666683
 30
0.0
 11
-3.826283581339453
 21
-4.163666666666682
 31
0.0
  0
CIRCLE
  5
DB
330
1F
100
AcDbEntity
  8
Layer1
 62
     7
370
     9
100
AcDbCircle
 10
-4.346283581339463
 20
-3.413666666666682
 30
0.0
 40
0.4500000000000001
  0
LINE
  5
DC
330
1F
100
AcDbEntity
  8
Layer1
 62
     7
370
    25
100
AcDbLine
 10
-3.826283581339453
 20
-8.321666666666568
 30
0.0
 11
-3.826283581339453
 21
-8.505666666666569
 31
0.0
  0
LINE
  5
DD
330
1F
100
AcDbEntity
  8
Layer1
 62
     7
370
    25
100
AcDbLine
 10
-4.866283581339474
 20
-8.321666666666568
 30
0.0
 11
-4.866283581339474
 21
-8.505666666666569
 31
0.0
  0
ELLIPSE
  5
DE
330
1F
100
AcDbEntity
  8
Layer1
 62
     7
370
    25
100
AcDbEllipse
 10
-4.136507853582725
 20
-8.413666666666568
 30
0.0
 11
0.0
 21
-0.2099609375
 31
0.0
210
0.0
220
0.0
230
-1.0
 40
0.6697674418604651
 41
3.141592611097091
 42
3.141592710600293
  0
LINE
  5
DF
330
1F
100
AcDbEntity
  8
Layer1
 62
     7
370
     9
100
AcDbLine
 10
-4.721283581339463
 20
-6.413666666666682
 30
0.0
 11
-3.971283581339463
 21
-6.413666666666682
 31
0.0
  0
LINE
  5
E0
330
1F
100
AcDbEntity
  8
Layer1
 62
     7
370
     9
100
AcDbLine
 10
-4.721283581339463
 20
-7.413666666666682
 30
0.0
 11
-3.971283581339463
 21
-7.413666666666682
 31
0.0
  0
LINE
  5
E1
330
1F
100
AcDbEntity
  8
Layer1
 62
     7
370
     9
100
AcDbLine
 10
-4.721283581339463
 20
-1.413666666666682
 30
0.0
 11
-3.971283581339463
 21
-1.413666666666682
 31
0.0
  0
LINE
  5
E2
330
1F
100
AcDbEntity
  8
Layer1
 62
     7
370
     9
100
AcDbLine
 10
-4.721283581339463
 20
-0.3874320995013072
 30
0.0
 11
-3.971283581339463
 21
-0.3874320995013072
 31
0.0
  0
LINE
  5
E3
330
1F
100
AcDbEntity
  8
Layer1
 62
     7
370
     9
100
AcDbLine
 10
-1.466216418660537
 20
-7.008641187134298
 30
0.0
 11
-1.466216418660537
 21
-7.008641187134298
 31
0.0
  0
LINE
  5
E4
330
1F
100
AcDbEntity
  8
Layer1
 62
     7
370
     9
100
AcDbLine
 10
-4.698055189336884
 20
-4.413666666666682
 30
0.0
 11
-3.948055189336884
 21
-4.413666666666682
 31
0.0
  0
LINE
  5
E5
330
1F
100
AcDbEntity
  8
Layer1
 62
     7
370
     9
100
AcDbLine
 10
-4.721283581339463
 20
-2.413666666666682
 30
0.0
 11
-3.971283581339463
 21
-2.413666666666682
 31
0.0
  0
LINE
  5
E6
330
1F
100
AcDbEntity
  8
Layer1
 62
     7
370
     9
100
AcDbLine
 10
-4.721283581339463
 20
-5.413666666666682
 30
0.0
 11
-3.971283581339463
 21
-5.413666666666682
 31
0.0
  0
LINE
  5
E7
330
1F
100
AcDbEntity
  8
Layer1
 62
     7
370
    25
100
AcDbLine
 10
-4.455588002279608
 20
-0.7055974203061641
 30
0.0
 11
-4.256727435433856
 21
-0.7055974203061641
 31
0.0
  0
LINE
  5
E8
330
1F
100
AcDbEntity
  8
Layer1
 62
     7
370
    25
100
AcDbLine
 10
-4.455588002279608
 20
-0.7055974203061641
 30
0.0
 11
-4.455588002279608
 21
-0.7055974203061641
 31
0.0
  0
LINE
  5
E9
330
1F
100
AcDbEntity
  8
Layer1
 62
     7
370
    25
100
AcDbLine
 10
-4.475119252279608
 20
-0.8852849203061641
 30
0.0
 11
-4.455588002279608
 21
-0.7055974203061641
 31
0.0
  0
SPLINE
  5
EA
330
1F
100
AcDbEntity
  8
Layer1
 62
     7
370
    25
100
AcDbSpline
210
0.0
220
0.0
230
1.0
 70
     8
 71
     3
 72
    21
 73
    17
 74
    15
 42
0.0000000001
 43
0.0000000001
 44
0.0
 12
0.6584118671175447
 22
0.7526578327758163
 32
0.0
 13
-0.3686158934368348
 23
0.9295818001153874
 33
0.0
 40
0.0
 40
0.0
 40
0.0
 40
0.0
 40
0.0281103412708916
 40
0.0885098361840101
 40
0.1500729822543841
 40
0.2114965298234232
 40
0.2685618417534336
 40
0.3280787499248992
 40
0.3757866961899565
 40
0.4327479934558423
 40
0.4904708824927659
 40
0.5488060836375963
 40
0.6118026982189884
 40
0.669413974782643
 40
0.709222690959677
 40
0.7439634832981162
 40
0.7439634832981162
 40
0.7439634832981162
 40
0.7439634832981162
 10
-4.475119252279608
 20
-0.8852849203061641
 30
0.0
 10
-4.468949858185781
 20
-0.8782324307929849
 30
0.0
 10
-4.449087791147939
 20
-0.855527280605625
 30
0.0
 10
-4.397064355112676
 20
-0.8438846804855277
 30
0.0
 10
-4.336577076084296
 20
-0.8434367165103913
 30
0.0
 10
-4.276468755547937
 20
-0.8592749543921381
 30
0.0
 10
-4.232919234524809
 20
-0.9035491636063386
 30
0.0
 10
-4.216153866949156
 20
-0.9572868208689764
 30
0.0
 10
-4.215971485081123
 20
-1.012518126698247
 30
0.0
 10
-4.232979011299502
 20
-1.065349070059579
 30
0.0
 10
-4.275187355132512
 20
-1.108904668219636
 30
0.0
 10
-4.335185284398017
 20
-1.123325585451927
 30
0.0
 10
-4.394471813418292
 20
-1.122976002001011
 30
0.0
 10
-4.448879244306468
 20
-1.111308326234769
 30
0.0
 10
-4.481152496918297
 20
-1.078504106197507
 30
0.0
 10
-4.490381832877429
 20
-1.055229410565965
 30
0.0
 10
-4.494650502279608
 20
-1.044464607806164
 30
0.0
 11
-4.475119252279608
 21
-0.8852849203061641
 31
0.0
 11
-4.455242239345489
 21
-0.8654079073720519
 31
0.0
 11
-4.397970814779617
 21
-0.8462224203061622
 31
0.0
 11
-4.336407668709243
 21
-0.8462224203061653
 31
0.0
 11
-4.277853627279608
 21
-0.8647771078061643
 31
0.0
 11
-4.237502358243371
 21
-0.905128376842399
 31
0.0
 11
-4.218283314779613
 21
-0.9614567953061627
 31
0.0
 11
-4.218283314779611
 21
-1.00916474157122
 31
0.0
 11
-4.23683800227961
 21
-1.063019295306164
 31
0.0
 11
-4.277654248547297
 21
-1.103835541573852
 31
0.0
 11
-4.333517689779611
 21
-1.120636482806164
 31
0.0
 11
-4.396514304361003
 21
-1.120636482806163
 31
0.0
 11
-4.451681752279612
 21
-1.104034920306161
 31
0.0
 11
-4.479830765438721
 21
-1.075885907147048
 31
0.0
 11
-4.494650502279608
 21
-1.044464607806164
 31
0.0
  0
ENDSEC
  0
SECTION
  2
OBJECTS
  0
DICTIONARY
  5
C
330
0
100
AcDbDictionary
281
     1
  3
ACAD_GROUP
350
D
  3
ACAD_LAYOUT
350
1A
  3
ACAD_MLEADERSTYLE
350
EC
  3
ACAD_MLINESTYLE
350
17
  3
ACAD_PLOTSETTINGS
350
19
  3
ACAD_PLOTSTYLENAME
350
E
  3
ACAD_TABLESTYLE
350
EB
  3
ACAD_VISUALSTYLE
350
2A
  0
DICTIONARY
  5
D
102
{ACAD_REACTORS
330
C
102
}
330
C
100
AcDbDictionary
281
     1
  0
DICTIONARY
  5
1A
102
{ACAD_REACTORS
330
C
102
}
330
C
100
AcDbDictionary
281
     1
  3
Layout1
350
1E
  3
Layout2
350
26
  3
Model
350
22
  0
DICTIONARY
  5
EC
102
{ACAD_REACTORS
330
C
102
}
330
C
100
AcDbDictionary
281
     1
  0
DICTIONARY
  5
17
102
{ACAD_REACTORS
330
C
102
}
330
C
100
AcDbDictionary
281
     1
  3
Standard
350
18
  0
DICTIONARY
  5
19
102
{ACAD_REACTORS
330
C
102
}
330
C
100
AcDbDictionary
281
     1
  0
ACDBDICTIONARYWDFLT
  5
E
102
{ACAD_REACTORS
330
C
102
}
330
C
100
AcDbDictionary
281
     1
  3
Normal
350
F
100
AcDbDictionaryWithDefault
340
F
  0
DICTIONARY
  5
EB
102
{ACAD_REACTORS
330
C
102
}
330
C
100
AcDbDictionary
281
     1
  0
DICTIONARY
  5
2A
102
{ACAD_REACTORS
330
C
102
}
330
C
100
AcDbDictionary
281
     1
  3
2dWireframe
350
2F
  3
3D Hidden
350
31
  3
3dWireframe
350
30
  3
Basic
350
32
  3
Brighten
350
36
  3
ColorChange
350
3A
  3
Conceptual
350
34
  3
Dim
350
35
  3
Facepattern
350
39
  3
Flat
350
2B
  3
FlatWithEdges
350
2C
  3
Gouraud
350
2D
  3
GouraudWithEdges
350
2E
  3
Linepattern
350
38
  3
Realistic
350
33
  3
Thicken
350
37
  0
LAYOUT
  5
1E
102
{ACAD_REACTORS
330
1A
102
}
330
1A
100
AcDbPlotSettings
  1

  2
none_device
  4

  6

 40
0.0
 41
0.0
 42
0.0
 43
0.0
 44
0.0
 45
0.0
 46
0.0
 47
0.0
 48
0.0
 49
0.0
140
0.0
141
0.0
142
1.0
143
1.0
 70
   688
 72
     0
 73
     0
 74
     5
  7

 75
    16
 76
     0
 77
     2
 78
   300
147
1.0
148
0.0
149
0.0
100
AcDbLayout
  1
Layout1
 70
     1
 71
     1
 10
0.0
 20
0.0
 11
12.0
 21
9.0
 12
0.0
 22
0.0
 32
0.0
 14
1.000000000000000E+20
 24
1.000000000000000E+20
 34
1.000000000000000E+20
 15
-1.000000000000000E+20
 25
-1.000000000000000E+20
 35
-1.000000000000000E+20
146
0.0
 13
0.0
 23
0.0
 33
0.0
 16
1.0
 26
0.0
 36
0.0
 17
0.0
 27
1.0
 37
0.0
 76
     0
330
1B
  0
LAYOUT
  5
26
102
{ACAD_REACTORS
330
1A
102
}
330
1A
100
AcDbPlotSettings
  1

  2
none_device
  4

  6

 40
0.0
 41
0.0
 42
0.0
 43
0.0
 44
0.0
 45
0.0
 46
0.0
 47
0.0
 48
0.0
 49
0.0
140
0.0
141
0.0
142
1.0
143
1.0
 70
   688
 72
     0
 73
     0
 74
     5
  7

 75
    16
 76
     0
 77
     2
 78
   300
147
1.0
148
0.0
149
0.0
100
AcDbLayout
  1
Layout2
 70
     1
 71
     2
 10
0.0
 20
0.0
 11
0.0
 21
0.0
 12
0.0
 22
0.0
 32
0.0
 14
0.0
 24
0.0
 34
0.0
 15
0.0
 25
0.0
 35
0.0
146
0.0
 13
0.0
 23
0.0
 33
0.0
 16
1.0
 26
0.0
 36
0.0
 17
0.0
 27
1.0
 37
0.0
 76
     0
330
23
  0
LAYOUT
  5
22
102
{ACAD_REACTORS
330
1A
102
}
330
1A
100
AcDbPlotSettings
  1

  2
none_device
  4

  6

 40
0.0
 41
0.0
 42
0.0
 43
0.0
 44
0.0
 45
0.0
 46
0.0
 47
0.0
 48
0.0
 49
0.0
140
0.0
141
0.0
142
1.0
143
1.0
 70
  1712
 72
     0
 73
     0
 74
     0
  7

 75
     0
 76
     0
 77
     2
 78
   300
147
1.0
148
0.0
149
0.0
100
AcDbLayout
  1
Model
 70
     1
 71
     0
 10
0.0
 20
0.0
 11
12.0
 21
9.0
 12
0.0
 22
0.0
 32
0.0
 14
1.000000000000000E+20
 24
1.000000000000000E+20
 34
1.000000000000000E+20
 15
-1.000000000000000E+20
 25
-1.000000000000000E+20
 35
-1.000000000000000E+20
146
0.0
 13
0.0
 23
0.0
 33
0.0
 16
1.0
 26
0.0
 36
0.0
 17
0.0
 27
1.0
 37
0.0
 76
     0
330
1F
331
29
  0
MLINESTYLE
  5
18
102
{ACAD_REACTORS
330
17
102
}
330
17
100
AcDbMlineStyle
  2
Standard
 70
     0
  3

 62
   256
 51
90.0
 52
90.0
 71
     2
 49
0.5
 62
   256
  6
BYLAYER
 49
-0.5
 62
   256
  6
BYLAYER
  0
ACDBPLACEHOLDER
  5
F
102
{ACAD_REACTORS
330
E
102
}
330
E
  0
VISUALSTYLE
  5
2F
102
{ACAD_REACTORS
330
2A
102
}
330
2A
100
AcDbVisualStyle
  2
2dWireframe
 70
     4
 71
     0
 72
     2
 73
     0
 90
        0
 40
-0.6
 41
-30.0
 62
     5
 63
     7
421
 16777215
 74
     1
 91
        4
 64
     7
 65
   257
 75
     1
175
     1
 42
1.0
 92
        0
 66
   257
 43
1.0
 76
     1
 77
     6
 78
     2
 67
     7
 79
     5
170
     0
171
     0
290
     0
174
     0
 93
        1
 44
0.0
173
     0
291
     0
 45
0.0
1001
ACAD
1000
AcDbSavedByObjectVersion
1070
     0
  0
VISUALSTYLE
  5
31
102
{ACAD_REACTORS
330
2A
102
}
330
2A
100
AcDbVisualStyle
  2
3D Hidden
 70
     6
 71
     1
 72
     2
 73
     2
 90
        0
 40
-0.6
 41
-30.0
 62
     5
 63
     7
421
 16777215
 74
     2
 91
        2
 64
     7
 65
   257
 75
     2
175
     1
 42
40.0
 92
        0
 66
   257
 43
1.0
 76
     1
 77
     6
 78
     2
 67
     7
 79
     3
170
     0
171
     0
290
     0
174
     0
 93
        1
 44
0.0
173
     0
291
     0
 45
0.0
1001
ACAD
1000
AcDbSavedByObjectVersion
1070
     0
  0
VISUALSTYLE
  5
30
102
{ACAD_REACTORS
330
2A
102
}
330
2A
100
AcDbVisualStyle
  2
3dWireframe
 70
     5
 71
     0
 72
     2
 73
     0
 90
        0
 40
-0.6
 41
-30.0
 62
     5
 63
     7
421
 16777215
 74
     1
 91
        4
 64
     7
 65
   257
 75
     1
175
     1
 42
1.0
 92
        0
 66
   257
 43
1.0
 76
     1
 77
     6
 78
     2
 67
     7
 79
     5
170
     0
171
     0
290
     0
174
     0
 93
        1
 44
0.0
173
     0
291
     0
 45
0.0
1001
ACAD
1000
AcDbSavedByObjectVersion
1070
     0
  0
VISUALSTYLE
  5
32
102
{ACAD_REACTORS
330
2A
102
}
330
2A
100
AcDbVisualStyle
  2
Basic
 70
     7
 71
     1
 72
     0
 73
     1
 90
        0
 40
-0.6
 41
-30.0
 62
     5
 63
     7
421
 16777215
 74
     0
 91
        4
 64
     7
 65
   257
 75
     1
175
     1
 42
1.0
 92
        8
 66
     7
 43
1.0
 76
     1
 77
     6
 78
     2
 67
     7
 79
     5
170
     0
171
     0
290
     0
174
     0
 93
        1
 44
0.0
173
     0
291
     1
 45
0.0
1001
ACAD
1000
AcDbSavedByObjectVersion
1070
     0
  0
VISUALSTYLE
  5
36
102
{ACAD_REACTORS
330
2A
102
}
330
2A
100
AcDbVisualStyle
  2
Brighten
 70
    12
 71
     2
 72
     2
 73
     0
 90
        0
 40
-0.6
 41
-30.0
 62
     5
 63
     7
421
 16777215
 74
     1
 91
        4
 64
     7
 65
   257
 75
     1
175
     1
 42
1.0
 92
        8
 66
     7
 43
1.0
 76
     1
 77
     6
 78
     2
 67
     7
 79
     5
170
     0
171
     0
290
     0
174
     0
 93
        1
 44
50.0
173
     0
291
     1
 45
0.0
1001
ACAD
1000
AcDbSavedByObjectVersion
1070
     0
  0
VISUALSTYLE
  5
3A
102
{ACAD_REACTORS
330
2A
102
}
330
2A
100
AcDbVisualStyle
  2
ColorChange
 70
    16
 71
     2
 72
     2
 73
     3
 90
        0
 40
-0.6
 41
-30.0
 62
     5
 63
     8
421
  8421504
 74
     1
 91
        4
 64
     7
 65
   257
 75
     1
175
     1
 42
1.0
 92
        8
 66
     8
424
  8421504
 43
1.0
 76
     1
 77
     6
 78
     2
 67
     7
 79
     5
170
     0
171
     0
290
     0
174
     0
 93
        1
 44
0.0
173
     0
291
     1
 45
0.0
1001
ACAD
1000
AcDbSavedByObjectVersion
1070
     0
  0
VISUALSTYLE
  5
34
102
{ACAD_REACTORS
330
2A
102
}
330
2A
100
AcDbVisualStyle
  2
Conceptual
 70
     9
 71
     3
 72
     2
 73
     0
 90
        0
 40
-0.6
 41
-30.0
 62
     5
 63
     7
421
 16777215
 74
     2
 91
        2
 64
     7
 65
   257
 75
     1
175
     1
 42
40.0
 92
        8
 66
     7
 43
1.0
 76
     1
 77
     6
 78
     2
 67
     7
 79
     3
170
     0
171
     0
290
     0
174
     0
 93
        1
 44
0.0
173
     0
291
     0
 45
0.0
1001
ACAD
1000
AcDbSavedByObjectVersion
1070
     0
  0
VISUALSTYLE
  5
35
102
{ACAD_REACTORS
330
2A
102
}
330
2A
100
AcDbVisualStyle
  2
Dim
 70
    11
 71
     2
 72
     2
 73
     0
 90
        0
 40
-0.6
 41
-30.0
 62
     5
 63
     7
421
 16777215
 74
     1
 91
        4
 64
     7
 65
   257
 75
     1
175
     1
 42
1.0
 92
        8
 66
     7
 43
1.0
 76
     1
 77
     6
 78
     2
 67
     7
 79
     5
170
     0
171
     0
290
     0
174
     0
 93
        1
 44
-50.0
173
     0
291
     1
 45
0.0
1001
ACAD
1000
AcDbSavedByObjectVersion
1070
     0
  0
VISUALSTYLE
  5
39
102
{ACAD_REACTORS
330
2A
102
}
330
2A
100
AcDbVisualStyle
  2
Facepattern
 70
    15
 71
     2
 72
     2
 73
     0
 90
        0
 40
-0.6
 41
-30.0
 62
     5
 63
     7
421
 16777215
 74
     1
 91
        4
 64
     7
 65
   257
 75
     1
175
     1
 42
1.0
 92
        8
 66
     7
 43
1.0
 76
     1
 77
     6
 78
     2
 67
     7
 79
     5
170
     0
171
     0
290
     0
174
     0
 93
        1
 44
0.0
173
     0
291
     1
 45
0.0
1001
ACAD
1000
AcDbSavedByObjectVersion
1070
     0
  0
VISUALSTYLE
  5
2B
102
{ACAD_REACTORS
330
2A
102
}
330
2A
100
AcDbVisualStyle
  2
Flat
 70
     0
 71
     2
 72
     1
 73
     1
 90
        2
 40
-0.6
 41
30.0
 62
     5
 63
     7
421
 16777215
 74
     0
 91
        4
 64
     7
 65
   257
 75
     1
175
     1
 42
1.0
 92
        8
 66
     7
 43
1.0
 76
     1
 77
     6
 78
     2
 67
     7
 79
     5
170
     0
171
     0
290
     0
174
     0
 93
       13
 44
0.0
173
     0
291
     1
 45
0.0
1001
ACAD
1000
AcDbSavedByObjectVersion
1070
     0
  0
VISUALSTYLE
  5
2C
102
{ACAD_REACTORS
330
2A
102
}
330
2A
100
AcDbVisualStyle
  2
FlatWithEdges
 70
     1
 71
     2
 72
     1
 73
     1
 90
        2
 40
-0.6
 41
30.0
 62
     5
 63
     7
421
 16777215
 74
     1
 91
        4
 64
     7
 65
   257
 75
     1
175
     1
 42
1.0
 92
        0
 66
   257
 43
1.0
 76
     1
 77
     6
 78
     2
 67
     7
 79
     5
170
     0
171
     0
290
     0
174
     0
 93
       13
 44
0.0
173
     0
291
     1
 45
0.0
1001
ACAD
1000
AcDbSavedByObjectVersion
1070
     0
  0
VISUALSTYLE
  5
2D
102
{ACAD_REACTORS
330
2A
102
}
330
2A
100
AcDbVisualStyle
  2
Gouraud
 70
     2
 71
     2
 72
     2
 73
     1
 90
        2
 40
-0.6
 41
30.0
 62
     5
 63
     7
421
 16777215
 74
     0
 91
        4
 64
     7
 65
   257
 75
     1
175
     1
 42
1.0
 92
        0
 66
     7
 43
1.0
 76
     1
 77
     6
 78
     2
 67
     7
 79
     5
170
     0
171
     0
290
     0
174
     0
 93
       13
 44
0.0
173
     0
291
     1
 45
0.0
1001
ACAD
1000
AcDbSavedByObjectVersion
1070
     0
  0
VISUALSTYLE
  5
2E
102
{ACAD_REACTORS
330
2A
102
}
330
2A
100
AcDbVisualStyle
  2
GouraudWithEdges
 70
     3
 71
     2
 72
     2
 73
     1
 90
        2
 40
-0.6
 41
30.0
 62
     5
 63
     7
421
 16777215
 74
     1
 91
        4
 64
     7
 65
   257
 75
     1
175
     1
 42
1.0
 92
        0
 66
   257
 43
1.0
 76
     1
 77
     6
 78
     2
 67
     7
 79
     5
170
     0
171
     0
290
     0
174
     0
 93
       13
 44
0.0
173
     0
291
     1
 45
0.0
1001
ACAD
1000
AcDbSavedByObjectVersion
1070
     0
  0
VISUALSTYLE
  5
38
102
{ACAD_REACTORS
330
2A
102
}
330
2A
100
AcDbVisualStyle
  2
Linepattern
 70
    14
 71
     2
 72
     2
 73
     0
 90
        0
 40
-0.6
 41
-30.0
 62
     5
 63
     7
421
 16777215
 74
     1
 91
        4
 64
     7
 65
   257
 75
     7
175
     7
 42
1.0
 92
        8
 66
     7
 43
1.0
 76
     1
 77
     6
 78
     2
 67
     7
 79
     5
170
     0
171
     0
290
     0
174
     0
 93
        1
 44
0.0
173
     0
291
     1
 45
0.0
1001
ACAD
1000
AcDbSavedByObjectVersion
1070
     0
  0
VISUALSTYLE
  5
33
102
{ACAD_REACTORS
330
2A
102
}
330
2A
100
AcDbVisualStyle
  2
Realistic
 70
     8
 71
     2
 72
     2
 73
     0
 90
        0
 40
-0.6
 41
-30.0
 62
     5
 63
     7
421
 16777215
 74
     1
 91
        0
 64
     7
 65
   257
 75
     1
175
     1
 42
1.0
 92
        8
 66
     8
424
  7895160
 43
1.0
 76
     1
 77
     6
 78
     2
 67
     7
 79
     5
170
     0
171
     0
290
     0
174
     0
 93
       13
 44
0.0
173
     0
291
     0
 45
0.0
1001
ACAD
1000
AcDbSavedByObjectVersion
1070
     0
  0
VISUALSTYLE
  5
37
102
{ACAD_REACTORS
330
2A
102
}
330
2A
100
AcDbVisualStyle
  2
Thicken
 70
    13
 71
     2
 72
     2
 73
     0
 90
        0
 40
-0.6
 41
-30.0
 62
     5
 63
     7
421
 16777215
 74
     1
 91
        4
 64
     7
 65
   257
 75
     1
175
     1
 42
1.0
 92
       12
 66
     7
 43
1.0
 76
     1
 77
     6
 78
     2
 67
     7
 79
     5
170
     0
171
     0
290
     0
174
     0
 93
        1
 44
0.0
173
     0
291
     1
 45
0.0
1001
ACAD
1000
AcDbSavedByObjectVersion
1070
     0
  0
ENDSEC
  0
EOF
