  0
SECTION
  2
HEADER
  9
$ACADVER
  1
AC1009
  9
$DWGCODEPAGE
  3
ansi_1252
  9
$INSBASE
 10
0.0
 20
0.0
 30
0.0
  9
$EXTMIN
 10
22.21468170293696
 20
0.6369317114309823
 30
-0.0000000000000009
  9
$EXTMAX
 10
49.7832486423403
 20
23.91759053925487
 30
0.0
  9
$LIMMIN
 10
0.0
 20
0.0
  9
$LIMMAX
 10
12.0
 20
9.0
  9
$ORTHOMODE
 70
     0
  9
$REGENMODE
 70
     1
  9
$FILLMODE
 70
     1
  9
$QTEXTMODE
 70
     0
  9
$MIRRTEXT
 70
     1
  9
$DRAGMODE
 70
     2
  9
$LTSCALE
 40
1.0
  9
$OSMODE
 70
    37
  9
$ATTMODE
 70
     1
  9
$TEXTSIZE
 40
0.2
  9
$TRACEWID
 40
0.05
  9
$TEXTSTYLE
  7
STANDARD
  9
$CLAYER
  8
DEFAULT
  9
$CELTYPE
  6
BYLAYER
  9
$CECOLOR
 62
   256
  9
$DIMSCALE
 40
1.0
  9
$DIMASZ
 40
0.18
  9
$DIMEXO
 40
0.0625
  9
$DIMDLI
 40
0.38
  9
$DIMRND
 40
0.0
  9
$DIMDLE
 40
0.0
  9
$DIMEXE
 40
0.18
  9
$DIMTP
 40
0.0
  9
$DIMTM
 40
0.0
  9
$DIMTXT
 40
0.18
  9
$DIMCEN
 40
0.09
  9
$DIMTSZ
 40
0.0
  9
$DIMTOL
 70
     0
  9
$DIMLIM
 70
     0
  9
$DIMTIH
 70
     1
  9
$DIMTOH
 70
     1
  9
$DIMSE1
 70
     0
  9
$DIMSE2
 70
     0
  9
$DIMTAD
 70
     0
  9
$DIMZIN
 70
     0
  9
$DIMBLK
  1

  9
$DIMASO
 70
     1
  9
$DIMSHO
 70
     1
  9
$DIMPOST
  1

  9
$DIMAPOST
  1

  9
$DIMALT
 70
     0
  9
$DIMALTD
 70
     2
  9
$DIMALTF
 40
25.4
  9
$DIMLFAC
 40
1.0
  9
$DIMTOFL
 70
     0
  9
$DIMTVP
 40
0.0
  9
$DIMTIX
 70
     0
  9
$DIMSOXD
 70
     0
  9
$DIMSAH
 70
     0
  9
$DIMBLK1
  1

  9
$DIMBLK2
  1

  9
$DIMSTYLE
  2
STANDARD
  9
$DIMCLRD
 70
     0
  9
$DIMCLRE
 70
     0
  9
$DIMCLRT
 70
     0
  9
$DIMTFAC
 40
1.0
  9
$DIMGAP
 40
0.09
  9
$LUNITS
 70
     2
  9
$LUPREC
 70
     3
  9
$SKETCHINC
 40
0.1
  9
$FILLETRAD
 40
0.5
  9
$AUNITS
 70
     0
  9
$AUPREC
 70
     0
  9
$MENU
  1
.
  9
$ELEVATION
 40
0.0
  9
$PELEVATION
 40
0.0
  9
$THICKNESS
 40
0.0
  9
$LIMCHECK
 70
     0
  9
$CHAMFERA
 40
0.5
  9
$CHAMFERB
 40
0.5
  9
$SKPOLY
 70
     0
  9
$TDCREATE
 40
2454871.668858866
  9
$TDUPDATE
 40
2454871.668858877
  9
$TDINDWG
 40
0.0000000116
  9
$TDUSRTIMER
 40
0.0000000116
  9
$USRTIMER
 70
     1
  9
$ANGBASE
 50
0.0
  9
$ANGDIR
 70
     0
  9
$PDMODE
 70
     0
  9
$PDSIZE
 40
0.0
  9
$PLINEWID
 40
0.0
  9
$COORDS
 70
     1
  9
$SPLFRAME
 70
     0
  9
$SPLINETYPE
 70
     6
  9
$SPLINESEGS
 70
     8
  9
$ATTDIA
 70
     0
  9
$ATTREQ
 70
     1
  9
$HANDLING
 70
     1
  9
$HANDSEED
  5
CA
  9
$SURFTAB1
 70
     6
  9
$SURFTAB2
 70
     6
  9
$SURFTYPE
 70
     6
  9
$SURFU
 70
     6
  9
$SURFV
 70
     6
  9
$UCSNAME
  2

  9
$UCSORG
 10
0.0
 20
0.0
 30
0.0
  9
$UCSXDIR
 10
1.0
 20
0.0
 30
0.0
  9
$UCSYDIR
 10
0.0
 20
1.0
 30
0.0
  9
$PUCSNAME
  2

  9
$PUCSORG
 10
0.0
 20
0.0
 30
0.0
  9
$PUCSXDIR
 10
1.0
 20
0.0
 30
0.0
  9
$PUCSYDIR
 10
0.0
 20
1.0
 30
0.0
  9
$USERI1
 70
     0
  9
$USERI2
 70
     0
  9
$USERI3
 70
     0
  9
$USERI4
 70
     0
  9
$USERI5
 70
     0
  9
$USERR1
 40
0.0
  9
$USERR2
 40
0.0
  9
$USERR3
 40
0.0
  9
$USERR4
 40
0.0
  9
$USERR5
 40
0.0
  9
$WORLDVIEW
 70
     1
  9
$SHADEDGE
 70
     3
  9
$SHADEDIF
 70
    70
  9
$TILEMODE
 70
     1
  9
$MAXACTVP
 70
    64
  9
$PLIMCHECK
 70
     0
  9
$PEXTMIN
 10
1.000000000000000E+20
 20
1.000000000000000E+20
 30
1.000000000000000E+20
  9
$PEXTMAX
 10
-1.000000000000000E+20
 20
-1.000000000000000E+20
 30
-1.000000000000000E+20
  9
$PLIMMIN
 10
0.0
 20
0.0
  9
$PLIMMAX
 10
12.0
 20
9.0
  9
$UNITMODE
 70
     0
  9
$VISRETAIN
 70
     1
  9
$PLINEGEN
 70
     0
  9
$PSLTSCALE
 70
     1
  0
ENDSEC
  0
SECTION
  2
TABLES
  0
TABLE
  2
VPORT
 70
     1
  0
VPORT
  2
*ACTIVE
 70
     0
 10
0.0
 20
0.0
 11
1.0
 21
1.0
 12
0.0
 22
0.0
 13
0.0
 23
0.0
 14
0.5
 24
0.5
 15
0.5
 25
0.5
 16
0.0
 26
0.0
 36
1.0
 17
35.99896517263863
 27
12.27726112534292
 37
0.0
 40
23.74627200438036
 41
1.184183280348353
 42
50.0
 43
0.0
 44
0.0
 50
0.0
 51
0.0
 71
     0
 72
   100
 73
     1
 74
     3
 75
     0
 76
     0
 77
     0
 78
     0
  0
ENDTAB
  0
TABLE
  2
LTYPE
 70
     1
  0
LTYPE
  2
CONTINUOUS
 70
     0
  3
Solid line
 72
    65
 73
     0
 40
0.0
  0
ENDTAB
  0
TABLE
  2
LAYER
 70
     6
  0
LAYER
  2
0
 70
     0
 62
     7
  6
CONTINUOUS
  0
LAYER
  2
MAKE2D_VISIBLE_LINES
 70
     0
 62
     7
  6
CONTINUOUS
  0
LAYER
  2
INSIDE
 70
     0
 62
     7
  6
CONTINUOUS
  0
LAYER
  2
SLOT
 70
     0
 62
     7
  6
CONTINUOUS
  0
LAYER
  2
OUSTIDE
 70
     0
 62
     7
  6
CONTINUOUS
  0
LAYER
  2
DEFAULT
 70
     0
 62
     7
  6
CONTINUOUS
  0
ENDTAB
  0
TABLE
  2
STYLE
 70
     1
  0
STYLE
  2
STANDARD
 70
     0
 40
0.0
 41
1.0
 50
0.0
 71
     0
 42
0.2
  3
txt
  4

  0
ENDTAB
  0
TABLE
  2
VIEW
 70
     0
  0
ENDTAB
  0
TABLE
  2
UCS
 70
     0
  0
ENDTAB
  0
TABLE
  2
APPID
 70
     1
  0
APPID
  2
ACAD
 70
     0
  0
ENDTAB
  0
TABLE
  2
DIMSTYLE
 70
     1
  0
DIMSTYLE
  2
STANDARD
 70
     0
  3

  4

  5

  6

  7

 40
1.0
 41
0.18
 42
0.0625
 43
0.38
 44
0.18
 45
0.0
 46
0.0
 47
0.0
 48
0.0
140
0.18
141
0.09
142
0.0
143
25.4
144
1.0
145
0.0
146
1.0
147
0.09
 71
     0
 72
     0
 73
     1
 74
     1
 75
     0
 76
     0
 77
     0
 78
     0
170
     0
171
     2
172
     0
173
     0
174
     0
175
     0
176
     0
177
     0
178
     0
  0
ENDTAB
  0
ENDSEC
  0
SECTION
  2
BLOCKS
  0
BLOCK
  8
0
  2
$MODEL_SPACE
 70
     0
 10
0.0
 20
0.0
 30
0.0
  3
$MODEL_SPACE
  1

  0
ENDBLK
  5
21
  8
0
  0
BLOCK
 67
     1
  8
0
  2
$PAPER_SPACE
 70
     0
 10
0.0
 20
0.0
 30
0.0
  3
$PAPER_SPACE
  1

  0
ENDBLK
  5
1D
 67
     1
  8
0
  0
ENDSEC
  0
SECTION
  2
ENTITIES
  0
LINE
  5
2B
  8
MAKE2D_VISIBLE_LINES
 10
35.60243586251642
 20
10.0130626712368
 30
0.0
 11
32.75526465188972
 21
10.93816467612307
 31
0.0
  0
ARC
  5
2C
  8
MAKE2D_VISIBLE_LINES
 10
34.81549709231248
 20
12.43501116112712
 30
0.0
 40
3.562500002089342
 50
4.285714314678854
 51
85.71428568541566
  0
LINE
  5
2D
  8
MAKE2D_VISIBLE_LINES
 10
32.75526465189576
 20
13.93185765003776
 30
0.0
 11
35.60243586252621
 21
14.85695965491253
 31
0.0
  0
LINE
  5
2E
  8
MAKE2D_VISIBLE_LINES
 10
36.48226015250309
 20
13.64598540899182
 30
0.0
 11
35.60243586252621
 21
14.85695965491253
 31
0.0
  0
LINE
  5
2F
  8
MAKE2D_VISIBLE_LINES
 10
36.48226015250309
 20
13.64598540899182
 30
0.0
 11
37.36208444247997
 21
12.43501116307111
 31
0.0
  0
LINE
  5
30
  8
MAKE2D_VISIBLE_LINES
 10
32.75526465188972
 20
10.93816467612307
 30
0.0
 11
32.75526465189576
 21
13.93185765003776
 31
0.0
  0
LINE
  5
31
  8
MAKE2D_VISIBLE_LINES
 10
31.3252838041266
 20
12.70590775233307
 30
0.0
 11
31.32528380412703
 21
12.1734558355298
 31
0.0
  0
ARC
  5
32
  8
MAKE2D_VISIBLE_LINES
 10
34.81549709621075
 20
12.43501116112713
 30
0.0
 40
3.562500002089343
 50
94.28571431467968
 51
175.7142856854151
  0
LINE
  5
33
  8
MAKE2D_VISIBLE_LINES
 10
35.0863936833158
 20
15.92522445050866
 30
0.0
 11
34.55394176688029
 21
15.9252244510071
 31
0.0
  0
ARC
  5
34
  8
MAKE2D_VISIBLE_LINES
 10
34.81549709621074
 20
12.43501116502538
 30
0.0
 40
3.56250000208934
 50
184.2857143146788
 51
265.7142856854143
  0
LINE
  5
35
  8
MAKE2D_VISIBLE_LINES
 10
34.54460050520733
 20
8.94479787564383
 30
0.0
 11
35.07705242164285
 21
8.9447978751454
 31
0.0
  0
ARC
  5
36
  8
MAKE2D_VISIBLE_LINES
 10
34.81549709231248
 20
12.43501116502538
 30
0.0
 40
3.562500002089337
 50
274.2857143146782
 51
355.714285685415
  0
LINE
  5
37
  8
MAKE2D_VISIBLE_LINES
 10
37.36208444247997
 20
12.43501116307111
 30
0.0
 11
35.60243586251642
 21
10.0130626712368
 31
0.0
  0
LINE
  5
38
  8
MAKE2D_VISIBLE_LINES
 10
35.0863936833158
 20
15.92522445050866
 30
0.0
 11
35.08172305266029
 21
15.98754969053443
 31
0.0
  0
LINE
  5
39
  8
MAKE2D_VISIBLE_LINES
 10
38.30571038219242
 20
12.69656649045753
 30
0.0
 11
38.36803562171934
 21
12.7012371214808
 31
0.0
  0
LINE
  5
3A
  8
MAKE2D_VISIBLE_LINES
 10
38.30571038169398
 20
12.16411457402201
 30
0.0
 11
38.36803562171978
 21
12.16878520467752
 31
0.0
  0
LINE
  5
3B
  8
MAKE2D_VISIBLE_LINES
 10
35.07705242164285
 20
8.9447978751454
 30
0.0
 11
35.08172305266612
 21
8.882472635618507
 31
0.0
  0
LINE
  5
3C
  8
MAKE2D_VISIBLE_LINES
 10
34.54460050520733
 20
8.94479787564383
 30
0.0
 11
34.54927113586284
 21
8.88247263561808
 31
0.0
  0
LINE
  5
3D
  8
MAKE2D_VISIBLE_LINES
 10
31.32528380412703
 20
12.1734558355298
 30
0.0
 11
31.26295856680388
 21
12.16878520467171
 31
0.0
  0
LINE
  5
3E
  8
MAKE2D_VISIBLE_LINES
 10
31.3252838041266
 20
12.70590775233307
 30
0.0
 11
31.26295856680344
 21
12.70123712147498
 31
0.0
  0
LINE
  5
3F
  8
MAKE2D_VISIBLE_LINES
 10
34.55394176688029
 20
15.9252244510071
 30
0.0
 11
34.54927113585702
 21
15.98754969053399
 31
0.0
  0
LINE
  5
40
  8
MAKE2D_VISIBLE_LINES
 10
38.30571038169398
 20
12.16411457402201
 30
0.0
 11
38.30571038219242
 21
12.69656649045753
 31
0.0
  0
LINE
  5
41
  8
MAKE2D_VISIBLE_LINES
 10
38.29884984894156
 20
23.91759048232523
 30
0.0
 11
39.47442035352651
 21
23.91759046480787
 31
0.0
  0
LINE
  5
42
  8
MAKE2D_VISIBLE_LINES
 10
40.94384319989443
 20
17.40501248572564
 30
0.0
 11
42.11941370447938
 21
17.40501248572564
 31
0.0
  0
LINE
  5
43
  8
MAKE2D_VISIBLE_LINES
 10
38.29884984894156
 20
23.91759048232523
 30
0.0
 11
37.12327934435662
 21
23.9175904998426
 31
0.0
  0
LINE
  5
44
  8
MAKE2D_VISIBLE_LINES
 10
43.58883664789228
 20
23.91759044291296
 30
0.0
 11
42.41326614330734
 21
23.91759046043033
 31
0.0
  0
LINE
  5
45
  8
MAKE2D_VISIBLE_LINES
 10
43.58883664789228
 20
23.91759044291296
 30
0.0
 11
44.76440715247723
 21
23.91759042539559
 31
0.0
  0
LINE
  5
46
  8
MAKE2D_VISIBLE_LINES
 10
33.00886304999084
 20
23.91759053925487
 30
0.0
 11
34.18443355457579
 21
23.91759053925487
 31
0.0
  0
LINE
  5
47
  8
MAKE2D_VISIBLE_LINES
 10
33.00886304999084
 20
23.91759053925487
 30
0.0
 11
31.8332925454059
 21
23.91759053925487
 31
0.0
  0
LINE
  5
48
  8
MAKE2D_VISIBLE_LINES
 10
40.94384319989443
 20
17.40501248572564
 30
0.0
 11
39.76827269530949
 21
17.40501248572564
 31
0.0
  0
LINE
  5
49
  8
MAKE2D_VISIBLE_LINES
 10
35.65385640094371
 20
17.40501254265527
 30
0.0
 11
34.47828589635877
 21
17.40501256017264
 31
0.0
  0
LINE
  5
4A
  8
MAKE2D_VISIBLE_LINES
 10
35.65385640094371
 20
17.40501254265527
 30
0.0
 11
36.82942690552866
 21
17.40501252513791
 31
0.0
  0
LINE
  5
4B
  8
MAKE2D_VISIBLE_LINES
 10
39.18048744301701
 20
17.40501249448432
 30
0.0
 11
39.47442035352651
 21
23.91759046480787
 31
0.0
  0
LINE
  5
4C
  8
MAKE2D_VISIBLE_LINES
 10
31.8332925454059
 20
23.91759053925487
 30
0.0
 11
32.12722535887041
 21
17.40501256455138
 31
0.0
  0
LINE
  5
4D
  8
MAKE2D_VISIBLE_LINES
 10
42.41326614330734
 20
23.91759046043033
 30
0.0
 11
42.70719885972687
 21
17.4050124813469
 31
0.0
  0
LINE
  5
4E
  8
MAKE2D_VISIBLE_LINES
 10
41.82548089101486
 20
23.91759046042912
 30
0.0
 11
40.06220550877401
 21
23.91759046042912
 31
0.0
  0
LINE
  5
4F
  8
MAKE2D_VISIBLE_LINES
 10
40.06220550877401
 20
23.91759046042912
 30
0.0
 11
39.76827269530949
 21
17.40501248572564
 31
0.0
  0
LINE
  5
50
  8
MAKE2D_VISIBLE_LINES
 10
32.12722535887041
 20
17.40501256455138
 30
0.0
 11
33.89050074111127
 21
17.40501256455138
 31
0.0
  0
LINE
  5
51
  8
MAKE2D_VISIBLE_LINES
 10
37.41721206077616
 20
17.40501252075917
 30
0.0
 11
39.18048744301701
 21
17.40501249448432
 31
0.0
  0
LINE
  5
52
  8
MAKE2D_VISIBLE_LINES
 10
37.12327934435662
 20
23.9175904998426
 30
0.0
 11
37.41721206077616
 21
17.40501252075917
 31
0.0
  0
LINE
  5
53
  8
MAKE2D_VISIBLE_LINES
 10
44.47047424196774
 20
17.40501245507205
 30
0.0
 11
44.76440715247723
 21
23.91759042539559
 31
0.0
  0
LINE
  5
54
  8
MAKE2D_VISIBLE_LINES
 10
42.70719885972687
 20
17.4050124813469
 30
0.0
 11
44.47047424196774
 21
17.40501245507205
 31
0.0
  0
LINE
  5
55
  8
MAKE2D_VISIBLE_LINES
 10
36.82942690552866
 20
17.40501252513791
 30
0.0
 11
36.53549418910912
 21
23.91759050422133
 31
0.0
  0
LINE
  5
56
  8
MAKE2D_VISIBLE_LINES
 10
42.11941370447938
 20
17.40501248572564
 30
0.0
 11
41.82548089101486
 21
23.91759046042912
 31
0.0
  0
LINE
  5
57
  8
MAKE2D_VISIBLE_LINES
 10
36.53549418910912
 20
23.91759050422133
 30
0.0
 11
34.77221880686827
 21
23.91759053049618
 31
0.0
  0
LINE
  5
58
  8
MAKE2D_VISIBLE_LINES
 10
34.77221880686827
 20
23.91759053049618
 30
0.0
 11
34.47828589635877
 21
17.40501256017264
 31
0.0
  0
LINE
  5
59
  8
MAKE2D_VISIBLE_LINES
 10
33.89050074111127
 20
17.40501256455138
 30
0.0
 11
34.18443355457579
 21
23.91759053925487
 31
0.0
  0
LINE
  5
5A
  8
MAKE2D_VISIBLE_LINES
 10
41.5664173536919
 20
0.6894135399065613
 30
0.0
 11
43.08480076839592
 21
0.6894135399065613
 31
0.0
  0
LINE
  5
5B
  8
MAKE2D_VISIBLE_LINES
 10
40.85198481041446
 20
2.301470057130065
 30
0.0
 11
41.5664173536919
 21
0.6894135399065613
 31
0.0
  0
LINE
  5
5C
  8
MAKE2D_VISIBLE_LINES
 10
41.8718355635919
 20
3.426366779185764
 30
0.0
 11
40.85198481041446
 21
2.301470057130065
 31
0.0
  0
POINT
  5
5D
  8
MAKE2D_VISIBLE_LINES
 10
42.47831816599391
 20
2.057890159546163
 30
0.0
  0
LINE
  5
5E
  8
MAKE2D_VISIBLE_LINES
 10
42.47831816599391
 20
2.057890159546163
 30
0.0
 11
41.8718355635919
 21
3.426366779185764
 31
0.0
  0
LINE
  5
5F
  8
MAKE2D_VISIBLE_LINES
 10
42.47831816599391
 20
2.057890159546163
 30
0.0
 11
43.08480076839592
 21
0.6894135399065613
 31
0.0
  0
LINE
  5
60
  8
MAKE2D_VISIBLE_LINES
 10
44.10465152157336
 20
3.426366779185764
 30
0.0
 11
43.08480076839592
 21
2.301470057130065
 31
0.0
  0
LINE
  5
61
  8
MAKE2D_VISIBLE_LINES
 10
43.08480076839592
 20
2.301470057130065
 30
0.0
 11
43.79923331167335
 21
0.6894135399065613
 31
0.0
  0
LINE
  5
62
  8
MAKE2D_VISIBLE_LINES
 10
43.79923331167335
 20
0.6894135399065613
 30
0.0
 11
45.31761672637738
 21
0.6894135399065613
 31
0.0
  0
LINE
  5
63
  8
MAKE2D_VISIBLE_LINES
 10
44.71113412397537
 20
2.057890159546163
 30
0.0
 11
45.31761672637738
 21
0.6894135399065613
 31
0.0
  0
LINE
  5
64
  8
MAKE2D_VISIBLE_LINES
 10
44.71113412397537
 20
2.057890159546163
 30
0.0
 11
44.10465152157336
 21
3.426366779185764
 31
0.0
  0
POINT
  5
65
  8
MAKE2D_VISIBLE_LINES
 10
44.71113412397537
 20
2.057890159546163
 30
0.0
  0
LINE
  5
66
  8
MAKE2D_VISIBLE_LINES
 10
46.33746747955482
 20
3.426366779185764
 30
0.0
 11
45.31761672637738
 21
2.301470057130065
 31
0.0
  0
LINE
  5
67
  8
MAKE2D_VISIBLE_LINES
 10
45.31761672637738
 20
2.301470057130065
 30
0.0
 11
46.03204926965482
 21
0.6894135399065613
 31
0.0
  0
LINE
  5
68
  8
MAKE2D_VISIBLE_LINES
 10
46.03204926965482
 20
0.6894135399065613
 30
0.0
 11
47.55043268435884
 21
0.6894135399065613
 31
0.0
  0
POINT
  5
69
  8
MAKE2D_VISIBLE_LINES
 10
46.94395008195683
 20
2.057890159546163
 30
0.0
  0
LINE
  5
6A
  8
MAKE2D_VISIBLE_LINES
 10
46.94395008195683
 20
2.057890159546163
 30
0.0
 11
46.33746747955482
 21
3.426366779185764
 31
0.0
  0
LINE
  5
6B
  8
MAKE2D_VISIBLE_LINES
 10
46.94395008195683
 20
2.057890159546163
 30
0.0
 11
47.55043268435884
 21
0.6894135399065613
 31
0.0
  0
LINE
  5
6C
  8
MAKE2D_VISIBLE_LINES
 10
49.17676603993829
 20
2.057890159546163
 30
0.0
 11
49.7832486423403
 21
0.6894135399065613
 31
0.0
  0
LINE
  5
6D
  8
MAKE2D_VISIBLE_LINES
 10
48.57028343753628
 20
3.426366779185764
 30
0.0
 11
47.55043268435884
 21
2.301470057130065
 31
0.0
  0
LINE
  5
6E
  8
MAKE2D_VISIBLE_LINES
 10
47.55043268435884
 20
2.301470057130065
 30
0.0
 11
48.26486522763628
 21
0.6894135399065613
 31
0.0
  0
LINE
  5
6F
  8
MAKE2D_VISIBLE_LINES
 10
48.26486522763628
 20
0.6894135399065613
 30
0.0
 11
49.7832486423403
 21
0.6894135399065613
 31
0.0
  0
POINT
  5
70
  8
MAKE2D_VISIBLE_LINES
 10
49.17676603993829
 20
2.057890159546163
 30
0.0
  0
LINE
  5
71
  8
MAKE2D_VISIBLE_LINES
 10
49.17676603993829
 20
2.057890159546163
 30
0.0
 11
48.57028343753628
 21
3.426366779185764
 31
0.0
  0
LINE
  5
72
  8
MAKE2D_VISIBLE_LINES
 10
40.24550220801245
 20
2.057890159546163
 30
0.0
 11
40.85198481041446
 21
0.6894135399065613
 31
0.0
  0
LINE
  5
73
  8
MAKE2D_VISIBLE_LINES
 10
40.24550220801245
 20
2.057890159546163
 30
0.0
 11
39.63901960561044
 21
3.426366779185764
 31
0.0
  0
POINT
  5
74
  8
MAKE2D_VISIBLE_LINES
 10
40.24550220801245
 20
2.057890159546163
 30
0.0
  0
LINE
  5
75
  8
MAKE2D_VISIBLE_LINES
 10
39.33360139571044
 20
0.6894135399065613
 30
0.0
 11
40.85198481041446
 21
0.6894135399065613
 31
0.0
  0
LINE
  5
76
  8
MAKE2D_VISIBLE_LINES
 10
38.619168852433
 20
2.301470057130065
 30
0.0
 11
39.33360139571044
 21
0.6894135399065613
 31
0.0
  0
LINE
  5
77
  8
MAKE2D_VISIBLE_LINES
 10
39.63901960561044
 20
3.426366779185764
 30
0.0
 11
38.619168852433
 21
2.301470057130065
 31
0.0
  0
CIRCLE
  5
79
  8
INSIDE
 10
37.10394558330119
 20
5.252026631183956
 30
0.0
 40
0.4
  0
CIRCLE
  5
7A
  8
INSIDE
 10
36.16043866850987
 20
2.348210932319692
 30
0.0
 40
0.25
  0
CIRCLE
  5
7B
  8
INSIDE
 10
33.10718615500405
 20
2.348210932319692
 30
0.0
 40
0.25
  0
CIRCLE
  5
7C
  8
INSIDE
 10
32.16367924021272
 20
5.252026631183959
 30
0.0
 40
0.25
  0
CIRCLE
  5
7D
  8
INSIDE
 10
34.63381241175696
 20
7.046683430147606
 30
0.0
 40
0.25
  0
LINE
  5
7F
  8
SLOT
 10
31.33792549535749
 20
5.80166530231195
 30
0.0
 11
31.41193839452846
 21
5.771299354997421
 31
0.0
  0
LINE
  5
80
  8
SLOT
 10
31.17319787028464
 20
5.295335515270587
 30
0.0
 11
31.24721076945559
 21
5.264969567956044
 31
0.0
  0
ARC
  5
81
  8
SLOT
 10
34.63381241175696
 20
4.449431711430979
 30
0.0
 40
3.482500000000004
 50
157.692681125396
 51
166.4602278646362
  0
ARC
  5
82
  8
SLOT
 10
34.63381241175696
 20
4.449431711430979
 30
0.0
 40
3.562500000000004
 50
157.6926811252089
 51
166.2641096966376
  0
LINE
  5
83
  8
SLOT
 10
33.28157882087579
 20
1.1535447950316
 30
0.0
 11
33.31194476819033
 21
1.227557694202563
 31
0.0
  0
LINE
  5
84
  8
SLOT
 10
33.78790860791715
 20
0.9888171699587183
 30
0.0
 11
33.8182745552317
 21
1.062830069129671
 31
0.0
  0
ARC
  5
85
  8
SLOT
 10
34.63381241175696
 20
4.449431711430989
 30
0.0
 40
3.482500000000004
 50
247.6926811253928
 51
256.4602278646329
  0
ARC
  5
86
  8
SLOT
 10
34.63381241175696
 20
4.449431711430989
 30
0.0
 40
3.562500000000004
 50
247.6926811252057
 51
256.2641096966344
  0
LINE
  5
87
  8
SLOT
 10
37.92969932815643
 20
3.097198120550019
 30
0.0
 11
37.85568642898546
 21
3.127564067864544
 31
0.0
  0
LINE
  5
88
  8
SLOT
 10
38.09442695322928
 20
3.603527907591378
 30
0.0
 11
38.02041405405832
 21
3.633893854905921
 31
0.0
  0
ARC
  5
89
  8
SLOT
 10
34.63381241175696
 20
4.449431711430982
 30
0.0
 40
3.482500000000004
 50
337.6926811253963
 51
346.4602278646365
  0
ARC
  5
8A
  8
SLOT
 10
34.63381241175696
 20
4.449431711430982
 30
0.0
 40
3.562500000000004
 50
337.6926811252089
 51
346.2641096966377
  0
CIRCLE
  5
8C
  8
OUSTIDE
 10
34.63381241175696
 20
4.449431711430982
 30
0.0
 40
3.8125
  0
LINE
  5
8D
  8
INSIDE
 10
34.63381241175696
 20
2.33327908505019
 30
0.0
 11
36.64639315655151
 21
3.795504587188137
 31
0.0
  0
LINE
  5
8E
  8
INSIDE
 10
36.64639315655151
 20
3.795504587188137
 30
0.0
 11
35.87765571714357
 21
6.161435148864221
 31
0.0
  0
LINE
  5
8F
  8
INSIDE
 10
35.87765571714357
 20
6.161435148864221
 30
0.0
 11
33.38996910637034
 21
6.161435148864221
 31
0.0
  0
LINE
  5
90
  8
INSIDE
 10
33.38996910637034
 20
6.161435148864221
 30
0.0
 11
32.6212316669624
 21
3.795504587188137
 31
0.0
  0
LINE
  5
91
  8
INSIDE
 10
32.6212316669624
 20
3.795504587188137
 30
0.0
 11
34.63381241175696
 21
2.33327908505019
 31
0.0
  0
ARC
  5
92
  8
SLOT
 10
34.63381241175696
 20
4.449431711430982
 30
0.0
 40
3.562500000000004
 50
67.71428571412275
 51
76.28571428555153
  0
ARC
  5
93
  8
SLOT
 10
34.63381241175696
 20
4.449431711430982
 30
0.0
 40
3.482500000000004
 50
67.71428571431008
 51
76.48183245355035
  0
LINE
  5
94
  8
SLOT
 10
35.47841125737823
 20
7.910364972846928
 30
0.0
 11
35.44807322035524
 21
7.836340628813417
 31
0.0
  0
LINE
  5
95
  8
SLOT
 10
35.98480312246738
 20
7.745828281865762
 30
0.0
 11
35.9544650854444
 21
7.671803937832248
 31
0.0
  0
LINE
  5
96
  8
MAKE2D_VISIBLE_LINES
 10
22.33968173030967
 20
22.93084877457061
 30
0.0
 11
22.33468173031566
 21
22.93084877456555
 31
0.0
  0
LINE
  5
97
  8
MAKE2D_VISIBLE_LINES
 10
22.33968174098514
 20
11.73898038645984
 30
0.0
 11
22.33468174099023
 21
11.73898038645477
 31
0.0
  0
LINE
  5
98
  8
MAKE2D_VISIBLE_LINES
 10
22.33968173533182
 20
17.3349282367975
 30
0.0
 11
22.33468173533694
 21
17.33492823679244
 31
0.0
  0
LINE
  5
99
  8
MAKE2D_VISIBLE_LINES
 10
29.73468170514323
 20
6.675934934644358
 30
0.0
 11
29.73968170513817
 21
6.675934934639294
 31
0.0
  0
LINE
  5
9A
  8
MAKE2D_VISIBLE_LINES
 10
29.73468171081245
 20
12.27188206366528
 30
0.0
 11
29.7396817108074
 21
12.27188206366022
 31
0.0
  0
LINE
  5
9B
  8
MAKE2D_VISIBLE_LINES
 10
29.7346817209169
 20
22.93084877457061
 30
0.0
 11
29.73968172091092
 21
22.93084877456555
 31
0.0
  0
LINE
  5
9D
  8
DEFAULT
 10
22.21468170293696
 20
22.93084384920377
 30
-0.0000000000000009
 11
22.33968172370141
 21
22.9308436670776
 31
0.0
  0
LINE
  5
9E
  8
DEFAULT
 10
22.33968172370141
 20
22.9308436670776
 30
0.0
 11
22.33968172394611
 21
17.87015344629155
 31
0.0
  0
LINE
  5
9F
  8
DEFAULT
 10
22.33968172394611
 20
17.87015344629155
 30
0.0
 11
22.33968172423592
 21
17.86555220333214
 31
0.0
  0
LINE
  5
A0
  8
DEFAULT
 10
22.33968172423592
 20
17.86555220333214
 30
0.0
 11
22.21468172453387
 21
17.86555220358432
 31
0.0
  0
LINE
  5
A1
  8
DEFAULT
 10
22.21468172453387
 20
17.86555220358432
 30
0.0
 11
22.21468172345869
 21
17.33260345007204
 31
0.0
  0
LINE
  5
A2
  8
DEFAULT
 10
22.21468172345869
 20
17.33260345007204
 30
0.0
 11
22.33968172345869
 21
17.33260344981984
 31
0.0
  0
LINE
  5
A3
  8
DEFAULT
 10
22.33968172345869
 20
17.33260344981984
 30
0.0
 11
22.33968171828728
 21
12.27420680367116
 31
0.0
  0
LINE
  5
A4
  8
DEFAULT
 10
22.33968171828728
 20
12.27420680367116
 30
0.0
 11
22.21468171828728
 21
12.27420680367118
 31
0.0
  0
LINE
  5
A5
  8
DEFAULT
 10
22.21468171828728
 20
12.27420680367118
 30
0.0
 11
22.21468171828728
 21
11.74125805015889
 31
0.0
  0
LINE
  5
A6
  8
DEFAULT
 10
22.21468171828728
 20
11.74125805015889
 30
0.0
 11
22.33968171803075
 21
11.74125805015889
 31
0.0
  0
LINE
  5
A7
  8
DEFAULT
 10
22.33968171803075
 20
11.74125805015889
 30
0.0
 11
22.3396817177741
 21
11.73665561166631
 31
0.0
  0
LINE
  5
A8
  8
DEFAULT
 10
22.3396817177741
 20
11.73665561166631
 30
0.0
 11
22.33968171261837
 21
6.678259679138122
 31
0.0
  0
LINE
  5
A9
  8
DEFAULT
 10
22.33968171261837
 20
6.678259679138122
 30
0.0
 11
22.33968171287394
 21
6.67365727501128
 31
0.0
  0
LINE
  5
AA
  8
DEFAULT
 10
22.33968171287394
 20
6.67365727501128
 30
0.0
 11
22.21468171313832
 21
6.67365727525366
 31
0.0
  0
LINE
  5
AB
  8
DEFAULT
 10
22.21468171313832
 20
6.67365727525366
 30
0.0
 11
22.21468171210491
 21
6.140708521741374
 31
0.0
  0
LINE
  5
AC
  8
DEFAULT
 10
22.21468171210491
 20
6.140708521741374
 30
0.0
 11
22.33968171210491
 21
6.140708521498972
 31
0.0
  0
LINE
  5
AD
  8
DEFAULT
 10
22.33968171210491
 20
6.140708521498972
 30
0.0
 11
22.33968170923402
 21
1.080018446588027
 31
0.0
  0
LINE
  5
AE
  8
DEFAULT
 10
22.33968170923402
 20
1.080018446588027
 30
0.0
 11
22.21468171092321
 21
1.080018382221462
 31
0.0
  0
LINE
  5
AF
  8
DEFAULT
 10
22.21468171092321
 20
1.080018382221462
 30
0.0
 11
22.21468170296348
 21
0.8135440054653182
 31
0.0
  0
LINE
  5
B0
  8
DEFAULT
 10
22.21468170296348
 20
0.8135440054653182
 30
0.0
 11
22.33968170293696
 21
0.8135440017415974
 31
0.0
  0
LINE
  5
B1
  8
DEFAULT
 10
22.33968170293696
 20
0.8135440017415974
 30
0.0
 11
29.73468172561326
 21
0.8135439979957519
 31
0.0
  0
LINE
  5
B2
  8
DEFAULT
 10
29.73468172561326
 20
0.8135439979957519
 30
0.0
 11
29.85968174826309
 21
0.8135440054653182
 31
0.0
  0
LINE
  5
B3
  8
DEFAULT
 10
29.85968174826309
 20
0.8135440054653182
 30
0.0
 11
29.85968174030337
 21
1.080018382221462
 31
0.0
  0
LINE
  5
B4
  8
DEFAULT
 10
29.85968174030337
 20
1.080018382221462
 30
0.0
 11
29.73468174199255
 21
1.080018446588027
 31
0.0
  0
LINE
  5
B5
  8
DEFAULT
 10
29.73468174199255
 20
1.080018446588027
 30
0.0
 11
29.73468173912166
 21
6.140708521498972
 31
0.0
  0
LINE
  5
B6
  8
DEFAULT
 10
29.73468173912166
 20
6.140708521498972
 30
0.0
 11
29.85968173912166
 21
6.140708521741374
 31
0.0
  0
LINE
  5
B7
  8
DEFAULT
 10
29.85968173912166
 20
6.140708521741374
 30
0.0
 11
29.85968173808826
 21
6.67365727525366
 31
0.0
  0
LINE
  5
B8
  8
DEFAULT
 10
29.85968173808826
 20
6.67365727525366
 30
0.0
 11
29.73468173835263
 21
6.67365727501128
 31
0.0
  0
LINE
  5
B9
  8
DEFAULT
 10
29.73468173835263
 20
6.67365727501128
 30
0.0
 11
29.7346817386082
 21
6.678259679138122
 31
0.0
  0
LINE
  5
BA
  8
DEFAULT
 10
29.7346817386082
 20
6.678259679138122
 30
0.0
 11
29.73468173345248
 21
11.73665561166631
 31
0.0
  0
LINE
  5
BB
  8
DEFAULT
 10
29.73468173345248
 20
11.73665561166631
 30
0.0
 11
29.73468173319582
 21
11.74125805015889
 31
0.0
  0
LINE
  5
BC
  8
DEFAULT
 10
29.73468173319582
 20
11.74125805015889
 30
0.0
 11
29.85968173293929
 21
11.74125805015889
 31
0.0
  0
LINE
  5
BD
  8
DEFAULT
 10
29.85968173293929
 20
11.74125805015889
 30
0.0
 11
29.85968173293929
 21
12.27420680367118
 31
0.0
  0
LINE
  5
BE
  8
DEFAULT
 10
29.85968173293929
 20
12.27420680367118
 30
0.0
 11
29.73468173293929
 21
12.27420680367116
 31
0.0
  0
LINE
  5
BF
  8
DEFAULT
 10
29.73468173293929
 20
12.27420680367116
 30
0.0
 11
29.73468172776789
 21
17.33260344981984
 31
0.0
  0
LINE
  5
C0
  8
DEFAULT
 10
29.73468172776789
 20
17.33260344981984
 30
0.0
 11
29.85968172776789
 21
17.33260345007204
 31
0.0
  0
LINE
  5
C1
  8
DEFAULT
 10
29.85968172776789
 20
17.33260345007204
 30
0.0
 11
29.85968172669271
 21
17.86555220358432
 31
0.0
  0
LINE
  5
C2
  8
DEFAULT
 10
29.85968172669271
 20
17.86555220358432
 30
0.0
 11
29.73468172699065
 21
17.86555220333214
 31
0.0
  0
LINE
  5
C3
  8
DEFAULT
 10
29.73468172699065
 20
17.86555220333214
 30
0.0
 11
29.73468172728046
 21
17.87015344629155
 31
0.0
  0
LINE
  5
C4
  8
DEFAULT
 10
29.73468172728046
 20
17.87015344629155
 30
0.0
 11
29.73468172752516
 21
22.9308436670776
 31
0.0
  0
LINE
  5
C5
  8
DEFAULT
 10
29.73468172752516
 20
22.9308436670776
 30
0.0
 11
29.85968174828961
 21
22.93084384920377
 31
-0.0000000000000009
  0
LINE
  5
C6
  8
DEFAULT
 10
29.85968174828961
 20
22.93084384920377
 30
-0.0000000000000009
 11
29.85968172561329
 21
23.19731822968363
 31
0.0
  0
LINE
  5
C7
  8
DEFAULT
 10
29.85968172561329
 20
23.19731822968363
 30
0.0
 11
26.03718172561329
 21
23.19731822220399
 31
0.0
  0
LINE
  5
C8
  8
DEFAULT
 10
26.03718172561329
 20
23.19731822220399
 30
0.0
 11
22.21468172561329
 21
23.19731822968363
 31
0.0
  0
LINE
  5
C9
  8
DEFAULT
 10
22.21468172561329
 20
23.19731822968363
 30
0.0
 11
22.21468170293696
 21
22.93084384920377
 31
-0.0000000000000009
  0
ENDSEC
  0
EOF
