  0
SECTION
  2
HEADER
  9
$ACADVER
  1
AC1018
  9
$ACADMAINTVER
 70
     0
  9
$DWGCODEPAGE
  3
UNDEFINED
  9
$INSBASE
 10
0.0
 20
0.0
 30
0.0
  9
$EXTMIN
 10
1.000000000000000E+20
 20
1.000000000000000E+20
 30
1.000000000000000E+20
  9
$EXTMAX
 10
-1.000000000000000E+20
 20
-1.000000000000000E+20
 30
-1.000000000000000E+20
  9
$LIMMIN
 10
0.0
 20
0.0
  9
$LIMMAX
 10
12.0
 20
9.0
  9
$ORTHOMODE
 70
     0
  9
$REGENMODE
 70
     1
  9
$FILLMODE
 70
     1
  9
$QTEXTMODE
 70
     0
  9
$MIRRTEXT
 70
     1
  9
$LTSCALE
 40
1.0
  9
$ATTMODE
 70
     1
  9
$TEXTSIZE
 40
0.2
  9
$TRACEWID
 40
0.05
  9
$TEXTSTYLE
  7
Standard
  9
$CLAYER
  8
0
  9
$CELTYPE
  6
ByLayer
  9
$CECOLOR
 62
   256
  9
$CELTSCALE
 40
1.0
  9
$DISPSILH
 70
     0
  9
$DIMSCALE
 40
1.0
  9
$DIMASZ
 40
0.18
  9
$DIMEXO
 40
0.0625
  9
$DIMDLI
 40
0.38
  9
$DIMRND
 40
0.0
  9
$DIMDLE
 40
0.0
  9
$DIMEXE
 40
0.18
  9
$DIMTP
 40
0.0
  9
$DIMTM
 40
0.0
  9
$DIMTXT
 40
0.18
  9
$DIMCEN
 40
0.09
  9
$DIMTSZ
 40
0.0
  9
$DIMTOL
 70
     0
  9
$DIMLIM
 70
     0
  9
$DIMTIH
 70
     1
  9
$DIMTOH
 70
     1
  9
$DIMSE1
 70
     0
  9
$DIMSE2
 70
     0
  9
$DIMTAD
 70
     0
  9
$DIMZIN
 70
     0
  9
$DIMBLK
  1

  9
$DIMASO
 70
     1
  9
$DIMSHO
 70
     1
  9
$DIMPOST
  1

  9
$DIMAPOST
  1

  9
$DIMALT
 70
     0
  9
$DIMALTD
 70
     2
  9
$DIMALTF
 40
25.4
  9
$DIMLFAC
 40
1.0
  9
$DIMTOFL
 70
     0
  9
$DIMTVP
 40
0.0
  9
$DIMTIX
 70
     0
  9
$DIMSOXD
 70
     0
  9
$DIMSAH
 70
     0
  9
$DIMBLK1
  1

  9
$DIMBLK2
  1

  9
$DIMSTYLE
  2
Standard
  9
$DIMCLRD
 70
     0
  9
$DIMCLRE
 70
     0
  9
$DIMCLRT
 70
     0
  9
$DIMTFAC
 40
1.0
  9
$DIMGAP
 40
0.09
  9
$DIMJUST
 70
     0
  9
$DIMSD1
 70
     0
  9
$DIMSD2
 70
     0
  9
$DIMTOLJ
 70
     1
  9
$DIMTZIN
 70
     0
  9
$DIMALTZ
 70
     0
  9
$DIMALTTZ
 70
     0
  9
$DIMUPT
 70
     0
  9
$DIMDEC
 70
     4
  9
$DIMTDEC
 70
     4
  9
$DIMALTU
 70
     2
  9
$DIMALTTD
 70
     2
  9
$DIMTXSTY
  7
Standard
  9
$DIMAUNIT
 70
     0
  9
$DIMADEC
 70
     0
  9
$DIMALTRND
 40
0.0
  9
$DIMAZIN
 70
     0
  9
$DIMDSEP
 70
    46
  9
$DIMATFIT
 70
     3
  9
$DIMFRAC
 70
     0
  9
$DIMLDRBLK
  1

  9
$DIMLUNIT
 70
     2
  9
$DIMLWD
 70
    -2
  9
$DIMLWE
 70
    -2
  9
$DIMTMOVE
 70
     0
  9
$LUNITS
 70
     2
  9
$LUPREC
 70
     4
  9
$SKETCHINC
 40
0.1
  9
$FILLETRAD
 40
0.5
  9
$AUNITS
 70
     0
  9
$AUPREC
 70
     0
  9
$MENU
  1
.
  9
$ELEVATION
 40
0.0
  9
$PELEVATION
 40
0.0
  9
$THICKNESS
 40
0.0
  9
$LIMCHECK
 70
     0
  9
$CHAMFERA
 40
0.5
  9
$CHAMFERB
 40
0.5
  9
$CHAMFERC
 40
1.0
  9
$CHAMFERD
 40
0.0
  9
$SKPOLY
 70
     0
  9
$TDCREATE
 40
2455439.074409722
  9
$TDUCREATE
 40
2455439.407743055
  9
$TDUPDATE
 40
2455439.074409734
  9
$TDUUPDATE
 40
2455439.407743067
  9
$TDINDWG
 40
0.0000000116
  9
$TDUSRTIMER
 40
0.0000000116
  9
$USRTIMER
 70
     1
  9
$ANGBASE
 50
0.0
  9
$ANGDIR
 70
     0
  9
$PDMODE
 70
     0
  9
$PDSIZE
 40
0.0
  9
$PLINEWID
 40
0.0
  9
$SPLFRAME
 70
     0
  9
$SPLINETYPE
 70
     6
  9
$SPLINESEGS
 70
     8
  9
$HANDSEED
  5
46F
  9
$SURFTAB1
 70
     6
  9
$SURFTAB2
 70
     6
  9
$SURFTYPE
 70
     6
  9
$SURFU
 70
     6
  9
$SURFV
 70
     6
  9
$UCSBASE
  2

  9
$UCSNAME
  2

  9
$UCSORG
 10
0.0
 20
0.0
 30
0.0
  9
$UCSXDIR
 10
1.0
 20
0.0
 30
0.0
  9
$UCSYDIR
 10
0.0
 20
1.0
 30
0.0
  9
$UCSORTHOREF
  2

  9
$UCSORTHOVIEW
 70
     0
  9
$UCSORGTOP
 10
0.0
 20
0.0
 30
0.0
  9
$UCSORGBOTTOM
 10
0.0
 20
0.0
 30
0.0
  9
$UCSORGLEFT
 10
0.0
 20
0.0
 30
0.0
  9
$UCSORGRIGHT
 10
0.0
 20
0.0
 30
0.0
  9
$UCSORGFRONT
 10
0.0
 20
0.0
 30
0.0
  9
$UCSORGBACK
 10
0.0
 20
0.0
 30
0.0
  9
$PUCSBASE
  2

  9
$PUCSNAME
  2

  9
$PUCSORG
 10
0.0
 20
0.0
 30
0.0
  9
$PUCSXDIR
 10
1.0
 20
0.0
 30
0.0
  9
$PUCSYDIR
 10
0.0
 20
1.0
 30
0.0
  9
$PUCSORTHOREF
  2

  9
$PUCSORTHOVIEW
 70
     0
  9
$PUCSORGTOP
 10
0.0
 20
0.0
 30
0.0
  9
$PUCSORGBOTTOM
 10
0.0
 20
0.0
 30
0.0
  9
$PUCSORGLEFT
 10
0.0
 20
0.0
 30
0.0
  9
$PUCSORGRIGHT
 10
0.0
 20
0.0
 30
0.0
  9
$PUCSORGFRONT
 10
0.0
 20
0.0
 30
0.0
  9
$PUCSORGBACK
 10
0.0
 20
0.0
 30
0.0
  9
$USERI1
 70
     0
  9
$USERI2
 70
     0
  9
$USERI3
 70
     0
  9
$USERI4
 70
     0
  9
$USERI5
 70
     0
  9
$USERR1
 40
0.0
  9
$USERR2
 40
0.0
  9
$USERR3
 40
0.0
  9
$USERR4
 40
0.0
  9
$USERR5
 40
0.0
  9
$WORLDVIEW
 70
     1
  9
$SHADEDGE
 70
     3
  9
$SHADEDIF
 70
    70
  9
$TILEMODE
 70
     1
  9
$MAXACTVP
 70
    64
  9
$PINSBASE
 10
0.0
 20
0.0
 30
0.0
  9
$PLIMCHECK
 70
     0
  9
$PEXTMIN
 10
1.000000000000000E+20
 20
1.000000000000000E+20
 30
1.000000000000000E+20
  9
$PEXTMAX
 10
-1.000000000000000E+20
 20
-1.000000000000000E+20
 30
-1.000000000000000E+20
  9
$PLIMMIN
 10
0.0
 20
0.0
  9
$PLIMMAX
 10
12.0
 20
9.0
  9
$UNITMODE
 70
     0
  9
$VISRETAIN
 70
     1
  9
$PLINEGEN
 70
     0
  9
$PSLTSCALE
 70
     1
  9
$TREEDEPTH
 70
  3020
  9
$CMLSTYLE
  2
Standard
  9
$CMLJUST
 70
     0
  9
$CMLSCALE
 40
1.0
  9
$PROXYGRAPHICS
 70
     1
  9
$MEASUREMENT
 70
     0
  9
$CELWEIGHT
370
    -1
  9
$ENDCAPS
280
     0
  9
$JOINSTYLE
280
     0
  9
$LWDISPLAY
290
     0
  9
$INSUNITS
 70
     1
  9
$HYPERLINKBASE
  1

  9
$STYLESHEET
  1

  9
$XEDIT
290
     1
  9
$CEPSNTYPE
380
     0
  9
$PSTYLEMODE
290
     1
  9
$FINGERPRINTGUID
  2
{89F93FD4-C114-7F97-E0BF-9171CA022E22}
  9
$VERSIONGUID
  2
{FAEB1C32-E019-11D5-929B-00C0DF256EC4}
  9
$EXTNAMES
290
     1
  9
$PSVPSCALE
 40
0.0
  9
$OLESTARTUP
290
     0
  9
$SORTENTS
280
   127
  9
$INDEXCTL
280
     0
  9
$HIDETEXT
280
     1
  9
$XCLIPFRAME
290
     0
  9
$HALOGAP
280
     0
  9
$OBSCOLOR
 70
   257
  9
$OBSLTYPE
280
     0
  9
$INTERSECTIONDISPLAY
280
     0
  9
$INTERSECTIONCOLOR
 70
   257
  9
$DIMASSOC
280
     2
  9
$PROJECTNAME
  1

  0
ENDSEC
  0
SECTION
  2
CLASSES
  0
CLASS
  1
ACDBDICTIONARYWDFLT
  2
AcDbDictionaryWithDefault
  3
ObjectDBX Classes
 90
        0
 91
        4
280
     0
281
     0
  0
CLASS
  1
VISUALSTYLE
  2
AcDbVisualStyle
  3
ObjectDBX Classes
 90
     4095
 91
        4
280
     0
281
     0
  0
CLASS
  1
SCALE
  2
AcDbScale
  3
ObjectDBX Classes
 90
     1153
 91
        4
280
     0
281
     0
  0
CLASS
  1
DICTIONARYVAR
  2
AcDbDictionaryVar
  3
ObjectDBX Classes
 90
        0
 91
        4
280
     0
281
     0
  0
ENDSEC
  0
SECTION
  2
TABLES
  0
TABLE
  2
VPORT
  5
8
330
0
100
AcDbSymbolTable
 70
     1
  0
VPORT
  5
29
330
8
100
AcDbSymbolTableRecord
100
AcDbViewportTableRecord
  2
*Active
 70
     0
 10
0.0
 20
0.0
 11
1.0
 21
1.0
 12
10.42990654205607
 22
4.5
 13
0.0
 23
0.0
 14
0.5
 24
0.5
 15
0.5
 25
0.5
 16
0.0
 26
0.0
 36
1.0
 17
0.0
 27
0.0
 37
0.0
 40
9.0
 41
1.972972972850329
 42
50.0
 43
0.0
 44
0.0
 50
0.0
 51
0.0
 71
     0
 72
   100
 73
     1
 74
     3
 75
     0
 76
     0
 77
     0
 78
     0
281
     0
 65
     1
110
0.0
120
0.0
130
0.0
111
1.0
121
0.0
131
0.0
112
0.0
122
1.0
132
0.0
 79
     0
146
0.0
  0
ENDTAB
  0
TABLE
  2
LTYPE
  5
5
330
0
100
AcDbSymbolTable
 70
    11
  0
LTYPE
  5
14
330
5
100
AcDbSymbolTableRecord
100
AcDbLinetypeTableRecord
  2
ByBlock
 70
     0
  3

 72
    65
 73
     0
 40
0.0
  0
LTYPE
  5
15
330
5
100
AcDbSymbolTableRecord
100
AcDbLinetypeTableRecord
  2
ByLayer
 70
     0
  3

 72
    65
 73
     0
 40
0.0
  0
LTYPE
  5
16
330
5
100
AcDbSymbolTableRecord
100
AcDbLinetypeTableRecord
  2
Continuous
 70
     0
  3
Solid line
 72
    65
 73
     0
 40
0.0
  0
LTYPE
  5
60
330
5
100
AcDbSymbolTableRecord
100
AcDbLinetypeTableRecord
  2
Stitch_G
 70
     0
  3
Graphite's line style                   
 72
    65
 73
     2
 40
4.349999874830246
 49
2.174999937415123
 74
     0
 49
-2.174999937415123
 74
     0
  0
LTYPE
  5
61
330
5
100
AcDbSymbolTableRecord
100
AcDbLinetypeTableRecord
  2
Cutting_G
 70
     0
  3
Graphite's line style                   
 72
    65
 73
     6
 40
44.02499981224537
 49
30.0
 74
     0
 49
-2.174999937415123
 74
     0
 49
3.75
 74
     0
 49
-2.174999937415123
 74
     0
 49
3.75
 74
     0
 49
-2.174999937415123
 74
     0
  0
LTYPE
  5
62
330
5
100
AcDbSymbolTableRecord
100
AcDbLinetypeTableRecord
  2
Divide_G
 70
     0
  3
Graphite's line style                   
 72
    65
 73
     6
 40
23.39999981224537
 49
15.0
 74
     0
 49
-2.174999937415123
 74
     0
 49
0.9375
 74
     0
 49
-2.174999937415123
 74
     0
 49
0.9375
 74
     0
 49
-2.174999937415123
 74
     0
  0
LTYPE
  5
63
330
5
100
AcDbSymbolTableRecord
100
AcDbLinetypeTableRecord
  2
Border_G
 70
     0
  3
Graphite's line style                   
 72
    65
 73
     6
 40
37.46249981224537
 49
15.0
 74
     0
 49
-2.174999937415123
 74
     0
 49
15.0
 74
     0
 49
-2.174999937415123
 74
     0
 49
0.9375
 74
     0
 49
-2.174999937415123
 74
     0
  0
LTYPE
  5
64
330
5
100
AcDbSymbolTableRecord
100
AcDbLinetypeTableRecord
  2
Dashdot_G
 70
     0
  3
Graphite's line style                   
 72
    65
 73
     4
 40
20.28749987483025
 49
15.0
 74
     0
 49
-2.174999937415123
 74
     0
 49
0.9375
 74
     0
 49
-2.174999937415123
 74
     0
  0
LTYPE
  5
65
330
5
100
AcDbSymbolTableRecord
100
AcDbLinetypeTableRecord
  2
Phantom_G
 70
     0
  3
Graphite's line style                   
 72
    65
 73
     6
 40
29.02499981224537
 49
15.0
 74
     0
 49
-2.174999937415123
 74
     0
 49
3.75
 74
     0
 49
-2.174999937415123
 74
     0
 49
3.75
 74
     0
 49
-2.174999937415123
 74
     0
  0
LTYPE
  5
66
330
5
100
AcDbSymbolTableRecord
100
AcDbLinetypeTableRecord
  2
Hidden_G
 70
     0
  3
Graphite's line style                   
 72
    65
 73
     2
 40
5.924999937415123
 49
3.75
 74
     0
 49
-2.174999937415123
 74
     0
  0
LTYPE
  5
67
330
5
100
AcDbSymbolTableRecord
100
AcDbLinetypeTableRecord
  2
Dashed_G
 70
     0
  3
Graphite's line style                   
 72
    65
 73
     2
 40
11.25
 49
7.5
 74
     0
 49
-3.75
 74
     0
  0
LTYPE
  5
68
330
5
100
AcDbSymbolTableRecord
100
AcDbLinetypeTableRecord
  2
Center_G
 70
     0
  3
Graphite's line style                   
 72
    65
 73
     4
 40
23.09999987483025
 49
15.0
 74
     0
 49
-2.174999937415123
 74
     0
 49
3.75
 74
     0
 49
-2.174999937415123
 74
     0
  0
LTYPE
  5
69
330
5
100
AcDbSymbolTableRecord
100
AcDbLinetypeTableRecord
  2
Dotted_G
 70
     0
  3

 72
    65
 73
     2
 40
0.1001
 49
0.0001
 74
     0
 49
-0.1
 74
     2
 75
     0
340
0
 46
0.0
 50
0.0
 44
0.0
 45
0.0
  9
.
  0
ENDTAB
  0
TABLE
  2
LAYER
  5
2
330
0
100
AcDbSymbolTable
 70
     5
  0
LAYER
  5
10
330
2
100
AcDbSymbolTableRecord
100
AcDbLayerTableRecord
  2
0
 70
     0
 62
     7
  6
Continuous
370
    -3
390
F
  0
LAYER
  5
6A
330
2
100
AcDbSymbolTableRecord
100
AcDbLayerTableRecord
  2
Layer1
 70
     0
 62
     7
  6
Continuous
370
    -3
390
F
  0
LAYER
  5
6B
330
2
100
AcDbSymbolTableRecord
100
AcDbLayerTableRecord
  2
Construction
 70
     0
 62
     7
  6
Continuous
370
    -3
390
F
  0
LAYER
  5
6C
330
2
100
AcDbSymbolTableRecord
100
AcDbLayerTableRecord
  2
Dimension
 70
     0
 62
     7
  6
Continuous
370
    -3
390
F
  0
LAYER
  5
6D
330
2
100
AcDbSymbolTableRecord
100
AcDbLayerTableRecord
  2
Constraints
 70
     0
 62
     7
  6
Continuous
370
    -3
390
F
  0
ENDTAB
  0
TABLE
  2
STYLE
  5
3
330
0
100
AcDbSymbolTable
 70
     4
  0
STYLE
  5
11
330
3
100
AcDbSymbolTableRecord
100
AcDbTextStyleTableRecord
  2
Standard
 70
     0
 40
0.0
 41
1.0
 50
0.0
 71
     0
 42
0.2
  3
txt
  4

  0
STYLE
  5
3B
330
3
100
AcDbSymbolTableRecord
100
AcDbTextStyleTableRecord
  2
OdaShxStyle
 70
     0
 40
0.0
 41
1.0
 50
0.0
 71
     0
 42
0.2
  3
txt
  4

  0
STYLE
  5
3C
330
3
100
AcDbSymbolTableRecord
100
AcDbTextStyleTableRecord
  2
OdaTtfStyle
 70
     0
 40
0.0
 41
1.0
 50
0.0
 71
     0
 42
0.2
  3
VERDANA.TTF
  4

1001
ACAD
1000
Verdana
1071
       34
  0
STYLE
  5
3D
330
3
100
AcDbSymbolTableRecord
100
AcDbTextStyleTableRecord
  2

 70
     1
 40
0.0
 41
1.0
 50
0.0
 71
     0
 42
22.45
  3
ltypeshp.shx
  4

  0
ENDTAB
  0
TABLE
  2
VIEW
  5
6
330
0
100
AcDbSymbolTable
 70
     0
  0
ENDTAB
  0
TABLE
  2
UCS
  5
7
330
0
100
AcDbSymbolTable
 70
     0
  0
ENDTAB
  0
TABLE
  2
APPID
  5
9
330
0
100
AcDbSymbolTable
 70
     1
  0
APPID
  5
12
330
9
100
AcDbSymbolTableRecord
100
AcDbRegAppTableRecord
  2
ACAD
 70
     0
  0
ENDTAB
  0
TABLE
  2
DIMSTYLE
  5
A
330
0
100
AcDbSymbolTable
 70
     9
100
AcDbDimStyleTable
  0
DIMSTYLE
105
27
330
A
100
AcDbSymbolTableRecord
100
AcDbDimStyleTableRecord
  2
Standard
 70
     0
340
11
  0
DIMSTYLE
105
3E
330
A
100
AcDbSymbolTableRecord
100
AcDbDimStyleTableRecord
  2
OdaDimStyle0
 70
     0
340
11
  0
DIMSTYLE
105
3F
330
A
100
AcDbSymbolTableRecord
100
AcDbDimStyleTableRecord
  2
OdaDimStyle1
 70
     0
340
11
  0
DIMSTYLE
105
40
330
A
100
AcDbSymbolTableRecord
100
AcDbDimStyleTableRecord
  2
OdaDimStyle2
 70
     0
340
11
342
41
  0
DIMSTYLE
105
47
330
A
100
AcDbSymbolTableRecord
100
AcDbDimStyleTableRecord
  2
OdaDimStyle3
 70
     0
340
11
342
48
  0
DIMSTYLE
105
4B
330
A
100
AcDbSymbolTableRecord
100
AcDbDimStyleTableRecord
  2
OdaDimStyle4
 70
     0
340
11
342
4C
  0
DIMSTYLE
105
50
330
A
100
AcDbSymbolTableRecord
100
AcDbDimStyleTableRecord
  2
OdaDimStyle5
 70
     0
340
11
  0
DIMSTYLE
105
51
330
A
100
AcDbSymbolTableRecord
100
AcDbDimStyleTableRecord
  2
OdaDimStyle6
 70
     0
340
11
342
52
  0
DIMSTYLE
105
5A
330
A
100
AcDbSymbolTableRecord
100
AcDbDimStyleTableRecord
  2
OdaDimStyle7
 70
     0
340
11
342
5B
  0
ENDTAB
  0
TABLE
  2
BLOCK_RECORD
  5
1
330
0
100
AcDbSymbolTable
 70
     6
  0
BLOCK_RECORD
  5
1F
330
1
100
AcDbSymbolTableRecord
100
AcDbBlockTableRecord
  2
*Model_Space
340
22
  0
BLOCK_RECORD
  5
1B
330
1
100
AcDbSymbolTableRecord
100
AcDbBlockTableRecord
  2
*Paper_Space
340
1E
  0
BLOCK_RECORD
  5
23
330
1
100
AcDbSymbolTableRecord
100
AcDbBlockTableRecord
  2
*Paper_Space0
340
26
  0
BLOCK_RECORD
  5
41
330
1
100
AcDbSymbolTableRecord
100
AcDbBlockTableRecord
  2
_CLOSEDBLANK
340
0
  0
BLOCK_RECORD
  5
48
330
1
100
AcDbSymbolTableRecord
100
AcDbBlockTableRecord
  2
_NONE
340
0
  0
BLOCK_RECORD
  5
4C
330
1
100
AcDbSymbolTableRecord
100
AcDbBlockTableRecord
  2
_OBLIQUE
340
0
  0
BLOCK_RECORD
  5
52
330
1
100
AcDbSymbolTableRecord
100
AcDbBlockTableRecord
  2
_DOT
340
0
  0
BLOCK_RECORD
  5
5B
330
1
100
AcDbSymbolTableRecord
100
AcDbBlockTableRecord
  2
_DOTBLANK
340
0
  0
ENDTAB
  0
ENDSEC
  0
SECTION
  2
BLOCKS
  0
BLOCK
  5
20
330
1F
100
AcDbEntity
  8
0
100
AcDbBlockBegin
  2
*Model_Space
 70
     0
 10
0.0
 20
0.0
 30
0.0
  3
*Model_Space
  1

  0
ENDBLK
  5
21
330
1F
100
AcDbEntity
  8
0
100
AcDbBlockEnd
  0
BLOCK
  5
1C
330
1B
100
AcDbEntity
 67
     1
  8
0
100
AcDbBlockBegin
  2
*Paper_Space
 70
     0
 10
0.0
 20
0.0
 30
0.0
  3
*Paper_Space
  1

  0
ENDBLK
  5
1D
330
1B
100
AcDbEntity
 67
     1
  8
0
100
AcDbBlockEnd
  0
BLOCK
  5
24
330
23
100
AcDbEntity
  8
0
100
AcDbBlockBegin
  2
*Paper_Space0
 70
     0
 10
0.0
 20
0.0
 30
0.0
  3
*Paper_Space0
  1

  0
ENDBLK
  5
25
330
23
100
AcDbEntity
  8
0
100
AcDbBlockEnd
  0
BLOCK
  5
42
330
41
100
AcDbEntity
  8
0
100
AcDbBlockBegin
  2
_CLOSEDBLANK
 70
     0
 10
0.0
 20
0.0
 30
0.0
  3
_CLOSEDBLANK
  1

  0
LINE
  5
44
330
41
100
AcDbEntity
  8
0
  6
ByBlock
 62
     0
370
    -2
100
AcDbLine
 10
-1.0
 20
0.166667
 30
0.0
 11
0.0
 21
0.0
 31
0.0
  0
LINE
  5
45
330
41
100
AcDbEntity
  8
0
  6
ByBlock
 62
     0
370
    -2
100
AcDbLine
 10
0.0
 20
0.0
 30
0.0
 11
-1.0
 21
-0.166667
 31
0.0
  0
LINE
  5
46
330
41
100
AcDbEntity
  8
0
  6
ByBlock
 62
     0
370
    -2
100
AcDbLine
 10
-1.0
 20
0.166667
 30
0.0
 11
-1.0
 21
-0.166667
 31
0.0
  0
ENDBLK
  5
43
330
41
100
AcDbEntity
  8
0
100
AcDbBlockEnd
  0
BLOCK
  5
49
330
48
100
AcDbEntity
  8
0
100
AcDbBlockBegin
  2
_NONE
 70
     0
 10
0.0
 20
0.0
 30
0.0
  3
_NONE
  1

  0
ENDBLK
  5
4A
330
48
100
AcDbEntity
  8
0
100
AcDbBlockEnd
  0
BLOCK
  5
4D
330
4C
100
AcDbEntity
  8
0
100
AcDbBlockBegin
  2
_OBLIQUE
 70
     0
 10
0.0
 20
0.0
 30
0.0
  3
_OBLIQUE
  1

  0
LINE
  5
4F
330
4C
100
AcDbEntity
  8
0
  6
ByBlock
 62
     0
370
    -2
100
AcDbLine
 10
-0.5
 20
-0.5
 30
0.0
 11
0.5
 21
0.5
 31
0.0
  0
ENDBLK
  5
4E
330
4C
100
AcDbEntity
  8
0
100
AcDbBlockEnd
  0
BLOCK
  5
53
330
52
100
AcDbEntity
  8
0
100
AcDbBlockBegin
  2
_DOT
 70
     0
 10
0.0
 20
0.0
 30
0.0
  3
_DOT
  1

  0
POLYLINE
  5
55
330
52
100
AcDbEntity
  8
0
  6
ByBlock
 62
     0
100
AcDb2dPolyline
 66
     1
 10
0.0
 20
0.0
 30
0.0
 70
     1
 40
0.5
 41
0.5
  0
VERTEX
  5
57
330
55
100
AcDbEntity
  8
0
  6
ByBlock
 62
     0
100
AcDbVertex
100
AcDb2dVertex
 10
-0.25
 20
0.0
 30
0.0
 42
1.0
  0
VERTEX
  5
58
330
55
100
AcDbEntity
  8
0
  6
ByBlock
 62
     0
100
AcDbVertex
100
AcDb2dVertex
 10
0.25
 20
0.0
 30
0.0
 42
1.0
  0
SEQEND
  5
59
330
55
100
AcDbEntity
  8
0
  6
ByBlock
 62
     0
  0
LINE
  5
56
330
52
100
AcDbEntity
  8
0
  6
ByBlock
 62
     0
370
    -2
100
AcDbLine
 10
-0.5
 20
0.0
 30
0.0
 11
-1.0
 21
0.0
 31
0.0
  0
ENDBLK
  5
54
330
52
100
AcDbEntity
  8
0
100
AcDbBlockEnd
  0
BLOCK
  5
5C
330
5B
100
AcDbEntity
  8
0
100
AcDbBlockBegin
  2
_DOTBLANK
 70
     0
 10
0.0
 20
0.0
 30
0.0
  3
_DOTBLANK
  1

  0
CIRCLE
  5
5E
330
5B
100
AcDbEntity
  8
0
  6
ByBlock
 62
     0
370
    -2
100
AcDbCircle
 10
0.0
 20
0.0
 30
0.0
 40
0.5
  0
LINE
  5
5F
330
5B
100
AcDbEntity
  8
0
  6
ByBlock
 62
     0
370
    -2
100
AcDbLine
 10
-0.5
 20
0.0
 30
0.0
 11
-1.0
 21
0.0
 31
0.0
  0
ENDBLK
  5
5D
330
5B
100
AcDbEntity
  8
0
100
AcDbBlockEnd
  0
ENDSEC
  0
SECTION
  2
ENTITIES
  0
LINE
  5
6E
330
1F
100
AcDbEntity
  8
Layer1
 62
     7
370
    25
100
AcDbLine
 10
80.56080203436375
 20
2.541692998749802
 30
0.0
 11
88.45005203436381
 21
2.541692998749802
 31
0.0
  0
LINE
  5
6F
330
1F
100
AcDbEntity
  8
Layer1
 62
     7
370
    25
100
AcDbLine
 10
80.56080203436375
 20
2.541692998749802
 30
0.0
 11
80.56080203436375
 21
2.416692998749802
 31
0.0
  0
LINE
  5
70
330
1F
100
AcDbEntity
  8
Layer1
 62
     7
370
    25
100
AcDbLine
 10
80.56080203436375
 20
2.416692998749802
 30
0.0
 11
79.8108020343638
 21
2.416692998749802
 31
0.0
  0
LINE
  5
71
330
1F
100
AcDbEntity
  8
Layer1
 62
     7
370
    25
100
AcDbLine
 10
71.9215520343638
 20
2.541692998749802
 30
0.0
 11
79.8108020343638
 21
2.541692998749802
 31
0.0
  0
LINE
  5
72
330
1F
100
AcDbEntity
  8
Layer1
 62
     7
370
    25
100
AcDbLine
 10
71.9215520343638
 20
2.541692998749802
 30
0.0
 11
71.9215520343638
 21
2.416692998749802
 31
0.0
  0
MTEXT
  5
73
330
1F
100
AcDbEntity
  8
Layer1
 62
     7
370
    25
100
AcDbMText
 10
68.74572692126661
 20
20.62722810566494
 30
0.0
 40
1.333333373069763
 41
11.94096426082276
 71
     1
 72
     1
  1
{\C7;\l\fPlotter|b0|i0|c00|p34;SM2007-b\P}
 73
     1
 44
1.0
  0
LINE
  5
96
330
1F
100
AcDbEntity
  8
Layer1
 62
     7
370
    25
100
AcDbLine
 10
75.03098273004713
 20
23.19391936649622
 30
0.0
 11
77.0152932438541
 21
22.85335885709155
 31
0.0
  0
LINE
  5
97
330
1F
100
AcDbEntity
  8
Layer1
 62
     7
370
    25
100
AcDbLine
 10
77.0152932438541
 20
22.85335885709155
 30
0.0
 11
77.00350040646043
 21
26.96403304896153
 31
0.0
  0
LINE
  5
98
330
1F
100
AcDbEntity
  8
Layer1
 62
     7
370
    25
100
AcDbLine
 10
71.68037403948979
 20
26.81055882104847
 30
0.0
 11
71.72967822905784
 21
26.80224636707645
 31
0.0
  0
LINE
  5
99
330
1F
100
AcDbEntity
  8
Layer1
 62
     7
370
    25
100
AcDbLine
 10
71.72967822905784
 20
26.80224636707645
 30
0.0
 11
71.79202163384802
 21
27.17202778883689
 31
0.0
  0
LINE
  5
9A
330
1F
100
AcDbEntity
  8
Layer1
 62
     7
370
    25
100
AcDbLine
 10
71.79202163384802
 20
27.17202778883689
 30
0.0
 11
71.74271744427998
 21
27.18034024280891
 31
0.0
  0
LINE
  5
9B
330
1F
100
AcDbEntity
  8
Layer1
 62
     7
370
    25
100
AcDbLine
 10
71.74271744427998
 20
27.18034024280891
 30
0.0
 11
71.68037403948979
 21
26.81055882104847
 31
0.0
  0
ARC
  5
9C
330
1F
100
AcDbEntity
  8
Layer1
 62
     7
370
    25
100
AcDbCircle
 10
78.06573414876215
 20
28.717361163353
 30
0.0
 40
2.050000000000001
100
AcDbArc
 50
170.1968718573002
 51
238.7909036785927
  0
LINE
  5
9D
330
1F
100
AcDbEntity
  8
Layer1
 62
     7
370
    25
100
AcDbLine
 10
69.060469686973
 20
23.54444524098925
 30
0.0
 11
69.07059849535042
 21
27.59597201100665
 31
0.0
  0
LINE
  5
9E
330
1F
100
AcDbEntity
  8
Layer1
 62
     7
370
    25
100
AcDbLine
 10
71.77082378352358
 20
27.19617544272272
 30
0.0
 11
69.07059849535042
 21
27.59597201100665
 31
0.0
  0
ARC
  5
9F
330
1F
100
AcDbEntity
  8
Layer1
 62
     7
370
    25
100
AcDbCircle
 10
71.09568247870672
 20
29.07877583009393
 30
0.0
 40
2.000000000000032
100
AcDbArc
 50
289.7289340256165
 51
359.8567622009413
  0
LINE
  5
A0
330
1F
100
AcDbEntity
  8
Layer1
 62
     7
370
    25
100
AcDbLine
 10
97.83930203436373
 20
2.416692998749802
 30
0.0
 11
97.08930203436373
 21
2.416692998749802
 31
0.0
  0
LINE
  5
A1
330
1F
100
AcDbEntity
  8
Layer1
 62
     7
370
    25
100
AcDbLine
 10
97.08930203436373
 20
2.416692998749802
 30
0.0
 11
97.08930203436373
 21
2.541692998749802
 31
0.0
  0
LINE
  5
A2
330
1F
100
AcDbEntity
  8
Layer1
 62
     7
370
    25
100
AcDbLine
 10
97.83930203436373
 20
2.541692998749802
 30
0.0
 11
97.83930203436373
 21
2.416692998749802
 31
0.0
  0
LINE
  5
A3
330
1F
100
AcDbEntity
  8
Layer1
 62
     7
370
     9
100
AcDbLine
 10
35.80081049933567
 20
56.5343051483642
 30
0.0
 11
35.80081049933567
 21
56.4093051483642
 31
0.0
  0
LINE
  5
A4
330
1F
100
AcDbEntity
  8
Layer1
 62
     7
370
     9
100
AcDbLine
 10
45.22561049933567
 20
80.28430514836417
 30
0.0
 11
45.22561049933567
 21
80.40930514836417
 31
0.0
  0
LINE
  5
A5
330
1F
100
AcDbEntity
  8
Layer1
 62
     7
370
     9
100
AcDbLine
 10
53.89983549933571
 20
80.28430514836417
 30
0.0
 11
54.4628354993357
 21
80.28430514836417
 31
0.0
  0
LINE
  5
A6
330
1F
100
AcDbEntity
  8
Layer1
 62
     7
370
     9
100
AcDbLine
 10
53.89983549933571
 20
80.28430514836417
 30
0.0
 11
53.89983549933571
 21
80.40930514836417
 31
0.0
  0
LINE
  5
A7
330
1F
100
AcDbEntity
  8
Layer1
 62
     7
370
    25
100
AcDbLine
 10
53.89983549933571
 20
80.40930514836417
 30
0.0
 11
45.22561049933567
 21
80.40930514836417
 31
0.0
  0
LINE
  5
A8
330
1F
100
AcDbEntity
  8
Layer1
 62
     7
370
     9
100
AcDbLine
 10
44.47561049933567
 20
80.28430514836417
 30
0.0
 11
45.22561049933567
 21
80.28430514836417
 31
0.0
  0
LINE
  5
A9
330
1F
100
AcDbEntity
  8
Layer1
 62
     7
370
     9
100
AcDbLine
 10
44.47561049933567
 20
80.28430514836417
 30
0.0
 11
44.47561049933567
 21
80.40930514836417
 31
0.0
  0
LINE
  5
AA
330
1F
100
AcDbEntity
  8
Layer1
 62
     7
370
     9
100
AcDbLine
 10
35.05081049933567
 20
80.28430514836417
 30
0.0
 11
35.05081049933567
 21
80.40930514836417
 31
0.0
  0
LINE
  5
AB
330
1F
100
AcDbEntity
  8
Layer1
 62
     7
370
     9
100
AcDbLine
 10
35.80081049933567
 20
80.28430514836417
 30
0.0
 11
35.80081049933567
 21
80.40930514836417
 31
0.0
  0
LINE
  5
AC
330
1F
100
AcDbEntity
  8
Layer1
 62
     7
370
     9
100
AcDbLine
 10
35.05081049933567
 20
80.28430514836417
 30
0.0
 11
35.80081049933567
 21
80.28430514836417
 31
0.0
  0
LINE
  5
AD
330
1F
100
AcDbEntity
  8
Layer1
 62
     7
370
    25
100
AcDbLine
 10
44.47561049933567
 20
80.40930514836417
 30
0.0
 11
35.80081049933567
 21
80.40930514836417
 31
0.0
  0
LINE
  5
AE
330
1F
100
AcDbEntity
  8
Layer1
 62
     7
370
     9
100
AcDbLine
 10
36.31931049933569
 20
80.22130514836412
 30
0.0
 11
38.36931049933564
 21
80.22130514836412
 31
0.0
  0
LINE
  5
AF
330
1F
100
AcDbEntity
  8
Layer1
 62
     7
370
    25
100
AcDbLine
 10
16.20121049933577
 20
80.40930514836417
 30
0.0
 11
7.526985499335741
 21
80.40930514836417
 31
0.0
  0
LINE
  5
B0
330
1F
100
AcDbEntity
  8
Layer1
 62
     7
370
     9
100
AcDbLine
 10
26.37601049933578
 20
80.28430514836417
 30
0.0
 11
26.37601049933578
 21
80.40930514836417
 31
0.0
  0
LINE
  5
B1
330
1F
100
AcDbEntity
  8
Layer1
 62
     7
370
     9
100
AcDbLine
 10
25.62601049933578
 20
80.28430514836417
 30
0.0
 11
25.62601049933578
 21
80.40930514836417
 31
0.0
  0
LINE
  5
B2
330
1F
100
AcDbEntity
  8
Layer1
 62
     7
370
    25
100
AcDbLine
 10
25.62601049933578
 20
80.40930514836417
 30
0.0
 11
16.95121049933577
 21
80.40930514836417
 31
0.0
  0
LINE
  5
B3
330
1F
100
AcDbEntity
  8
Layer1
 62
     7
370
     9
100
AcDbLine
 10
16.95121049933577
 20
80.28430514836417
 30
0.0
 11
16.95121049933577
 21
80.40930514836417
 31
0.0
  0
LINE
  5
B4
330
1F
100
AcDbEntity
  8
Layer1
 62
     7
370
    25
100
AcDbLine
 10
16.20121049933577
 20
80.28430514836417
 30
0.0
 11
16.95121049933577
 21
80.28430514836417
 31
0.0
  0
LINE
  5
B5
330
1F
100
AcDbEntity
  8
Layer1
 62
     7
370
    25
100
AcDbLine
 10
25.62601049933578
 20
80.28430514836417
 30
0.0
 11
26.37601049933578
 21
80.28430514836417
 31
0.0
  0
LINE
  5
B6
330
1F
100
AcDbEntity
  8
Layer1
 62
     7
370
     9
100
AcDbLine
 10
7.526985499335741
 20
80.28430514836417
 30
0.0
 11
7.526985499335741
 21
80.40930514836417
 31
0.0
  0
LINE
  5
B7
330
1F
100
AcDbEntity
  8
Layer1
 62
     7
370
     9
100
AcDbLine
 10
6.963985499335752
 20
80.28430514836417
 30
0.0
 11
7.526985499335741
 21
80.28430514836417
 31
0.0
  0
LINE
  5
B8
330
1F
100
AcDbEntity
  8
Layer1
 62
     7
370
     9
100
AcDbLine
 10
16.20121049933577
 20
80.28430514836417
 30
0.0
 11
16.20121049933577
 21
80.40930514836417
 31
0.0
  0
CIRCLE
  5
B9
330
1F
100
AcDbEntity
  8
Layer1
 62
     7
370
     9
100
AcDbCircle
 10
30.71341049933567
 20
64.40930514836414
 30
0.0
 40
0.375
  0
CIRCLE
  5
BA
330
1F
100
AcDbEntity
  8
Layer1
 62
     7
370
    25
100
AcDbCircle
 10
36.60391049933564
 20
61.78430514836414
 30
0.0
 40
0.1900000000000514
  0
CIRCLE
  5
BB
330
1F
100
AcDbEntity
  8
Layer1
 62
     7
370
    25
100
AcDbCircle
 10
48.38491049933573
 20
61.78430514836414
 30
0.0
 40
0.189999999999971
  0
CIRCLE
  5
BC
330
1F
100
AcDbEntity
  8
Layer1
 62
     7
370
    25
100
AcDbCircle
 10
48.38491049933573
 20
59.03430514836414
 30
0.0
 40
0.189999999999971
  0
LINE
  5
BD
330
1F
100
AcDbEntity
  8
Layer1
 62
     7
370
     9
100
AcDbLine
 10
44.47561049933567
 20
56.5343051483642
 30
0.0
 11
44.47561049933567
 21
56.4093051483642
 31
0.0
  0
LINE
  5
BE
330
1F
100
AcDbEntity
  8
Layer1
 62
     7
370
     9
100
AcDbLine
 10
44.47561049933567
 20
56.5343051483642
 30
0.0
 11
45.22561049933567
 21
56.5343051483642
 31
0.0
  0
LINE
  5
BF
330
1F
100
AcDbEntity
  8
Layer1
 62
     7
370
    25
100
AcDbLine
 10
53.89983549933571
 20
56.4093051483642
 30
0.0
 11
45.22561049933567
 21
56.4093051483642
 31
0.0
  0
LINE
  5
C0
330
1F
100
AcDbEntity
  8
Layer1
 62
     7
370
     9
100
AcDbLine
 10
53.89983549933571
 20
56.5343051483642
 30
0.0
 11
53.89983549933571
 21
56.4093051483642
 31
0.0
  0
LINE
  5
C1
330
1F
100
AcDbEntity
  8
Layer1
 62
     7
370
     9
100
AcDbLine
 10
53.89983549933571
 20
56.5343051483642
 30
0.0
 11
54.4628354993357
 21
56.5343051483642
 31
0.0
  0
LINE
  5
C2
330
1F
100
AcDbEntity
  8
Layer1
 62
     7
370
     9
100
AcDbLine
 10
45.22561049933567
 20
56.5343051483642
 30
0.0
 11
45.22561049933567
 21
56.4093051483642
 31
0.0
  0
LINE
  5
C3
330
1F
100
AcDbEntity
  8
Layer1
 62
     7
370
     9
100
AcDbLine
 10
35.05081049933567
 20
56.5343051483642
 30
0.0
 11
35.05081049933567
 21
56.4093051483642
 31
0.0
  0
CIRCLE
  5
C4
330
1F
100
AcDbEntity
  8
Layer1
 62
     7
370
    25
100
AcDbCircle
 10
36.60391049933564
 20
59.03430514836414
 30
0.0
 40
0.1900000000000514
  0
LINE
  5
C5
330
1F
100
AcDbEntity
  8
Layer1
 62
     7
370
    25
100
AcDbLine
 10
44.47561049933567
 20
56.4093051483642
 30
0.0
 11
35.80081049933567
 21
56.4093051483642
 31
0.0
  0
LINE
  5
C6
330
1F
100
AcDbEntity
  8
Layer1
 62
     7
370
     9
100
AcDbLine
 10
38.36931049933564
 20
78.22130514836418
 30
0.0
 11
36.31931049933569
 21
78.22130514836418
 31
0.0
  0
LINE
  5
C7
330
1F
100
AcDbEntity
  8
Layer1
 62
     7
370
     9
100
AcDbLine
 10
35.05081049933567
 20
56.5343051483642
 30
0.0
 11
35.80081049933567
 21
56.5343051483642
 31
0.0
  0
LINE
  5
C8
330
1F
100
AcDbEntity
  8
Layer1
 62
     7
370
    25
100
AcDbLine
 10
35.05081049933567
 20
80.40930514836417
 30
0.0
 11
26.37601049933578
 21
80.40930514836417
 31
0.0
  0
LINE
  5
C9
330
1F
100
AcDbEntity
  8
Layer1
 62
     7
370
    25
100
AcDbLine
 10
35.05081049933567
 20
56.4093051483642
 30
0.0
 11
26.37601049933578
 21
56.4093051483642
 31
0.0
  0
LINE
  5
CA
330
1F
100
AcDbEntity
  8
Layer1
 62
     7
370
    25
100
AcDbLine
 10
6.963985499335752
 20
56.5343051483642
 30
0.0
 11
6.963985499335752
 21
80.28430514836417
 31
0.0
  0
LINE
  5
CB
330
1F
100
AcDbEntity
  8
Layer1
 62
     7
370
    25
100
AcDbLine
 10
54.4628354993357
 20
80.28430514836417
 30
0.0
 11
54.4628354993357
 21
56.5343051483642
 31
0.0
  0
LINE
  5
CC
330
1F
100
AcDbEntity
  8
Layer1
 62
     7
370
     9
100
AcDbLine
 10
36.31931049933569
 20
78.22130514836418
 30
0.0
 11
36.31931049933569
 21
80.22130514836412
 31
0.0
  0
LINE
  5
CD
330
1F
100
AcDbEntity
  8
Layer1
 62
     7
370
     9
100
AcDbLine
 10
38.36931049933564
 20
80.22130514836412
 30
0.0
 11
38.36931049933564
 21
78.22130514836418
 31
0.0
  0
LINE
  5
CE
330
1F
100
AcDbEntity
  8
Layer1
 62
     7
370
    25
100
AcDbLine
 10
25.62601049933578
 20
56.4093051483642
 30
0.0
 11
16.95121049933577
 21
56.4093051483642
 31
0.0
  0
LINE
  5
CF
330
1F
100
AcDbEntity
  8
Layer1
 62
     7
370
    25
100
AcDbLine
 10
16.88241049933576
 20
64.4093051483642
 30
0.0
 11
20.98241049933567
 21
64.4093051483642
 31
0.0
  0
LINE
  5
D0
330
1F
100
AcDbEntity
  8
Layer1
 62
     7
370
    25
100
AcDbLine
 10
20.98241049933567
 20
57.4093051483642
 30
0.0
 11
16.88241049933576
 21
57.4093051483642
 31
0.0
  0
CIRCLE
  5
D1
330
1F
100
AcDbEntity
  8
Layer1
 62
     7
370
    25
100
AcDbCircle
 10
24.8229104993358
 20
59.03430514836414
 30
0.0
 40
0.189999999999971
  0
CIRCLE
  5
D2
330
1F
100
AcDbEntity
  8
Layer1
 62
     7
370
    25
100
AcDbCircle
 10
18.93241049933572
 20
72.4093051483642
 30
0.0
 40
1.050000000000011
  0
LINE
  5
D3
330
1F
100
AcDbEntity
  8
Layer1
 62
     7
370
    25
100
AcDbLine
 10
20.98241049933567
 20
64.4093051483642
 30
0.0
 11
20.98241049933567
 21
57.4093051483642
 31
0.0
  0
LINE
  5
D4
330
1F
100
AcDbEntity
  8
Layer1
 62
     7
370
    25
100
AcDbLine
 10
25.62601049933578
 20
56.5343051483642
 30
0.0
 11
26.37601049933578
 21
56.5343051483642
 31
0.0
  0
CIRCLE
  5
D5
330
1F
100
AcDbEntity
  8
Layer1
 62
     7
370
    25
100
AcDbCircle
 10
24.8229104993358
 20
61.78430514836414
 30
0.0
 40
0.189999999999971
  0
LINE
  5
D6
330
1F
100
AcDbEntity
  8
Layer1
 62
     7
370
    25
100
AcDbLine
 10
16.88241049933576
 20
57.4093051483642
 30
0.0
 11
16.88241049933576
 21
64.4093051483642
 31
0.0
  0
LINE
  5
D7
330
1F
100
AcDbEntity
  8
Layer1
 62
     7
370
    25
100
AcDbLine
 10
16.20121049933577
 20
56.5343051483642
 30
0.0
 11
16.95121049933577
 21
56.5343051483642
 31
0.0
  0
LINE
  5
D8
330
1F
100
AcDbEntity
  8
Layer1
 62
     7
370
     9
100
AcDbLine
 10
16.95121049933577
 20
56.5343051483642
 30
0.0
 11
16.95121049933577
 21
56.4093051483642
 31
0.0
  0
CIRCLE
  5
D9
330
1F
100
AcDbEntity
  8
Layer1
 62
     7
370
    25
100
AcDbCircle
 10
13.04191049933574
 20
61.78430514836414
 30
0.0
 40
0.1900000000000916
  0
LINE
  5
DA
330
1F
100
AcDbEntity
  8
Layer1
 62
     7
370
     9
100
AcDbLine
 10
6.963985499335752
 20
56.5343051483642
 30
0.0
 11
7.526985499335741
 21
56.5343051483642
 31
0.0
  0
LINE
  5
DB
330
1F
100
AcDbEntity
  8
Layer1
 62
     7
370
     9
100
AcDbLine
 10
7.526985499335741
 20
56.5343051483642
 30
0.0
 11
7.526985499335741
 21
56.4093051483642
 31
0.0
  0
LINE
  5
DC
330
1F
100
AcDbEntity
  8
Layer1
 62
     7
370
    25
100
AcDbLine
 10
16.20121049933577
 20
56.4093051483642
 30
0.0
 11
7.526985499335741
 21
56.4093051483642
 31
0.0
  0
LINE
  5
DD
330
1F
100
AcDbEntity
  8
Layer1
 62
     7
370
     9
100
AcDbLine
 10
25.62601049933578
 20
56.5343051483642
 30
0.0
 11
25.62601049933578
 21
56.4093051483642
 31
0.0
  0
LINE
  5
DE
330
1F
100
AcDbEntity
  8
Layer1
 62
     7
370
     9
100
AcDbLine
 10
26.37601049933578
 20
56.5343051483642
 30
0.0
 11
26.37601049933578
 21
56.4093051483642
 31
0.0
  0
LINE
  5
DF
330
1F
100
AcDbEntity
  8
Layer1
 62
     7
370
     9
100
AcDbLine
 10
16.20121049933577
 20
56.5343051483642
 30
0.0
 11
16.20121049933577
 21
56.4093051483642
 31
0.0
  0
CIRCLE
  5
E0
330
1F
100
AcDbEntity
  8
Layer1
 62
     7
370
    25
100
AcDbCircle
 10
13.04191049933574
 20
59.03430514836414
 30
0.0
 40
0.1900000000000916
  0
CIRCLE
  5
E1
330
1F
100
AcDbEntity
  8
Layer1
 62
     7
370
    25
100
AcDbCircle
 10
65.84389623594774
 20
74.75204903905053
 30
0.0
 40
0.5249999999999901
  0
LINE
  5
E2
330
1F
100
AcDbEntity
  8
Layer1
 62
     7
370
     9
100
AcDbLine
 10
89.97324623594768
 20
76.62704903905052
 30
0.0
 11
89.97324623594768
 21
76.75204903905052
 31
0.0
  0
LINE
  5
E3
330
1F
100
AcDbEntity
  8
Layer1
 62
     7
370
    25
100
AcDbLine
 10
89.97324623594768
 20
76.62704903905052
 30
0.0
 11
90.72324623594768
 21
76.62704903905052
 31
0.0
  0
LINE
  5
E4
330
1F
100
AcDbEntity
  8
Layer1
 62
     7
370
     9
100
AcDbLine
 10
90.72324623594768
 20
76.62704903905052
 30
0.0
 11
90.72324623594768
 21
76.75204903905052
 31
0.0
  0
LINE
  5
E5
330
1F
100
AcDbEntity
  8
Layer1
 62
     7
370
    25
100
AcDbLine
 10
89.97324623594768
 20
76.75204903905052
 30
0.0
 11
83.18344623594767
 21
76.75204903905052
 31
0.0
  0
LINE
  5
E6
330
1F
100
AcDbEntity
  8
Layer1
 62
     7
370
     9
100
AcDbLine
 10
82.43344623594767
 20
76.62704903905052
 30
0.0
 11
82.43344623594767
 21
76.75204903905052
 31
0.0
  0
LINE
  5
E7
330
1F
100
AcDbEntity
  8
Layer1
 62
     7
370
     9
100
AcDbLine
 10
83.18344623594767
 20
76.62704903905052
 30
0.0
 11
83.18344623594767
 21
76.75204903905052
 31
0.0
  0
LINE
  5
E8
330
1F
100
AcDbEntity
  8
Layer1
 62
     7
370
    25
100
AcDbLine
 10
82.43344623594767
 20
76.62704903905052
 30
0.0
 11
83.18344623594767
 21
76.62704903905052
 31
0.0
  0
LINE
  5
E9
330
1F
100
AcDbEntity
  8
Layer1
 62
     7
370
    25
100
AcDbLine
 10
82.43344623594767
 20
72.88204903905054
 30
0.0
 11
83.18344623594767
 21
72.88204903905054
 31
0.0
  0
LINE
  5
EA
330
1F
100
AcDbEntity
  8
Layer1
 62
     7
370
     9
100
AcDbLine
 10
82.43344623594767
 20
72.74704903905055
 30
0.0
 11
83.18344623594767
 21
72.74704903905055
 31
0.0
  0
LINE
  5
EB
330
1F
100
AcDbEntity
  8
Layer1
 62
     7
370
    25
100
AcDbLine
 10
82.43344623594767
 20
72.74704903905055
 30
0.0
 11
82.43344623594767
 21
72.88204903905054
 31
0.0
  0
LINE
  5
EC
330
1F
100
AcDbEntity
  8
Layer1
 62
     7
370
    25
100
AcDbLine
 10
83.18344623594767
 20
72.74704903905055
 30
0.0
 11
83.18344623594767
 21
72.88204903905054
 31
0.0
  0
LINE
  5
ED
330
1F
100
AcDbEntity
  8
Layer1
 62
     7
370
    25
100
AcDbLine
 10
89.97324623594768
 20
72.88204903905054
 30
0.0
 11
90.72324623594768
 21
72.88204903905054
 31
0.0
  0
LINE
  5
EE
330
1F
100
AcDbEntity
  8
Layer1
 62
     7
370
     9
100
AcDbLine
 10
89.97324623594768
 20
72.74704903905055
 30
0.0
 11
90.72324623594768
 21
72.74704903905055
 31
0.0
  0
LINE
  5
EF
330
1F
100
AcDbEntity
  8
Layer1
 62
     7
370
    25
100
AcDbLine
 10
89.97324623594768
 20
72.74704903905055
 30
0.0
 11
89.97324623594768
 21
72.88204903905054
 31
0.0
  0
LINE
  5
F0
330
1F
100
AcDbEntity
  8
Layer1
 62
     7
370
    25
100
AcDbLine
 10
90.72324623594768
 20
72.74704903905055
 30
0.0
 11
90.72324623594768
 21
72.88204903905054
 31
0.0
  0
LINE
  5
F1
330
1F
100
AcDbEntity
  8
Layer1
 62
     7
370
    25
100
AcDbLine
 10
97.51254623594774
 20
76.62704903905052
 30
0.0
 11
97.51254623594774
 21
76.75204903905052
 31
0.0
  0
LINE
  5
F2
330
1F
100
AcDbEntity
  8
Layer1
 62
     7
370
    25
100
AcDbLine
 10
98.07554623594773
 20
76.62704903905052
 30
0.0
 11
97.51254623594774
 21
76.62704903905052
 31
0.0
  0
LINE
  5
F3
330
1F
100
AcDbEntity
  8
Layer1
 62
     7
370
    25
100
AcDbLine
 10
97.51254623594774
 20
72.74704903905055
 30
0.0
 11
97.51254623594774
 21
72.88204903905054
 31
0.0
  0
LINE
  5
F4
330
1F
100
AcDbEntity
  8
Layer1
 62
     7
370
    25
100
AcDbLine
 10
98.07554623594773
 20
72.74704903905055
 30
0.0
 11
97.51254623594774
 21
72.74704903905055
 31
0.0
  0
LINE
  5
F5
330
1F
100
AcDbEntity
  8
Layer1
 62
     7
370
     9
100
AcDbLine
 10
97.51254623594774
 20
72.88204903905054
 30
0.0
 11
98.07554623594773
 21
72.88204903905054
 31
0.0
  0
LINE
  5
F6
330
1F
100
AcDbEntity
  8
Layer1
 62
     7
370
    25
100
AcDbLine
 10
98.07554623594773
 20
76.62704903905052
 30
0.0
 11
98.07554623594773
 21
72.88204903905054
 31
0.0
  0
LINE
  5
F7
330
1F
100
AcDbEntity
  8
Layer1
 62
     7
370
    25
100
AcDbLine
 10
60.5645462359477
 20
56.87704903905032
 30
0.0
 11
60.5645462359477
 21
56.75204903905032
 31
0.0
  0
LINE
  5
F8
330
1F
100
AcDbEntity
  8
Layer1
 62
     7
370
    25
100
AcDbLine
 10
67.35384623594767
 20
56.75204903905032
 30
0.0
 11
60.5645462359477
 21
56.75204903905032
 31
0.0
  0
LINE
  5
F9
330
1F
100
AcDbEntity
  8
Layer1
 62
     7
370
    25
100
AcDbLine
 10
97.51254623594774
 20
56.75204903905032
 30
0.0
 11
90.72324623594768
 21
56.75204903905032
 31
0.0
  0
LINE
  5
FA
330
1F
100
AcDbEntity
  8
Layer1
 62
     7
370
    25
100
AcDbLine
 10
89.97324623594768
 20
56.75204903905032
 30
0.0
 11
83.18344623594767
 21
56.75204903905032
 31
0.0
  0
LINE
  5
FB
330
1F
100
AcDbEntity
  8
Layer1
 62
     7
370
    25
100
AcDbLine
 10
82.43344623594767
 20
56.75204903905032
 30
0.0
 11
75.64364623594766
 21
56.75204903905032
 31
0.0
  0
LINE
  5
FC
330
1F
100
AcDbEntity
  8
Layer1
 62
     7
370
    25
100
AcDbLine
 10
74.89364623594766
 20
56.75204903905032
 30
0.0
 11
68.10384623594767
 21
56.75204903905032
 31
0.0
  0
LINE
  5
FD
330
1F
100
AcDbEntity
  8
Layer1
 62
     7
370
    25
100
AcDbLine
 10
97.51254623594774
 20
56.87704903905032
 30
0.0
 11
97.51254623594774
 21
56.75204903905032
 31
0.0
  0
LINE
  5
FE
330
1F
100
AcDbEntity
  8
Layer1
 62
     7
370
    25
100
AcDbLine
 10
98.07554623594773
 20
56.87704903905032
 30
0.0
 11
97.51254623594774
 21
56.87704903905032
 31
0.0
  0
LINE
  5
FF
330
1F
100
AcDbEntity
  8
Layer1
 62
     7
370
    25
100
AcDbLine
 10
60.00154623594771
 20
56.87704903905032
 30
0.0
 11
60.5645462359477
 21
56.87704903905032
 31
0.0
  0
LINE
  5
100
330
1F
100
AcDbEntity
  8
Layer1
 62
     7
370
     9
100
AcDbLine
 10
67.35384623594767
 20
56.87704903905032
 30
0.0
 11
67.35384623594767
 21
56.75204903905032
 31
0.0
  0
LINE
  5
101
330
1F
100
AcDbEntity
  8
Layer1
 62
     7
370
     9
100
AcDbLine
 10
68.10384623594767
 20
56.87704903905032
 30
0.0
 11
68.10384623594767
 21
56.75204903905032
 31
0.0
  0
LINE
  5
102
330
1F
100
AcDbEntity
  8
Layer1
 62
     7
370
    25
100
AcDbLine
 10
67.35384623594767
 20
56.87704903905032
 30
0.0
 11
68.10384623594767
 21
56.87704903905032
 31
0.0
  0
LINE
  5
103
330
1F
100
AcDbEntity
  8
Layer1
 62
     7
370
     9
100
AcDbLine
 10
74.89364623594766
 20
56.87704903905032
 30
0.0
 11
74.89364623594766
 21
56.75204903905032
 31
0.0
  0
LINE
  5
104
330
1F
100
AcDbEntity
  8
Layer1
 62
     7
370
     9
100
AcDbLine
 10
75.64364623594766
 20
56.87704903905032
 30
0.0
 11
75.64364623594766
 21
56.75204903905032
 31
0.0
  0
LINE
  5
105
330
1F
100
AcDbEntity
  8
Layer1
 62
     7
370
    25
100
AcDbLine
 10
74.89364623594766
 20
56.87704903905032
 30
0.0
 11
75.64364623594766
 21
56.87704903905032
 31
0.0
  0
LINE
  5
106
330
1F
100
AcDbEntity
  8
Layer1
 62
     7
370
     9
100
AcDbLine
 10
82.43344623594767
 20
56.87704903905032
 30
0.0
 11
82.43344623594767
 21
56.75204903905032
 31
0.0
  0
LINE
  5
107
330
1F
100
AcDbEntity
  8
Layer1
 62
     7
370
     9
100
AcDbLine
 10
83.18344623594767
 20
56.87704903905032
 30
0.0
 11
83.18344623594767
 21
56.75204903905032
 31
0.0
  0
LINE
  5
108
330
1F
100
AcDbEntity
  8
Layer1
 62
     7
370
    25
100
AcDbLine
 10
82.43344623594767
 20
56.87704903905032
 30
0.0
 11
83.18344623594767
 21
56.87704903905032
 31
0.0
  0
LINE
  5
109
330
1F
100
AcDbEntity
  8
Layer1
 62
     7
370
     9
100
AcDbLine
 10
90.72324623594768
 20
56.87704903905032
 30
0.0
 11
90.72324623594768
 21
56.75204903905032
 31
0.0
  0
LINE
  5
10A
330
1F
100
AcDbEntity
  8
Layer1
 62
     7
370
    25
100
AcDbLine
 10
89.97324623594768
 20
56.87704903905032
 30
0.0
 11
90.72324623594768
 21
56.87704903905032
 31
0.0
  0
LINE
  5
10B
330
1F
100
AcDbEntity
  8
Layer1
 62
     7
370
     9
100
AcDbLine
 10
89.97324623594768
 20
56.87704903905032
 30
0.0
 11
89.97324623594768
 21
56.75204903905032
 31
0.0
  0
LINE
  5
10C
330
1F
100
AcDbEntity
  8
Layer1
 62
     7
370
    25
100
AcDbLine
 10
82.43344623594767
 20
76.75204903905052
 30
0.0
 11
75.64364623594766
 21
76.75204903905052
 31
0.0
  0
LINE
  5
10D
330
1F
100
AcDbEntity
  8
Layer1
 62
     7
370
    25
100
AcDbLine
 10
98.07554623594773
 20
72.74704903905055
 30
0.0
 11
98.07554623594773
 21
56.87704903905032
 31
0.0
  0
LINE
  5
10E
330
1F
100
AcDbEntity
  8
Layer1
 62
     7
370
    25
100
AcDbLine
 10
67.35384623594767
 20
76.75204903905052
 30
0.0
 11
60.5645462359477
 21
76.75204903905052
 31
0.0
  0
CIRCLE
  5
10F
330
1F
100
AcDbEntity
  8
Layer1
 62
     7
370
    25
100
AcDbCircle
 10
-92.23319623594763
 20
74.75204903905053
 30
0.0
 40
0.5250000000000002
210
0.0
220
0.0
230
-1.0
  0
LINE
  5
110
330
1F
100
AcDbEntity
  8
Layer1
 62
     7
370
    25
100
AcDbLine
 10
97.51254623594774
 20
76.75204903905052
 30
0.0
 11
90.72324623594768
 21
76.75204903905052
 31
0.0
  0
LINE
  5
111
330
1F
100
AcDbEntity
  8
Layer1
 62
     7
370
    25
100
AcDbLine
 10
60.00154623594771
 20
76.62704903905052
 30
0.0
 11
60.5645462359477
 21
76.62704903905052
 31
0.0
  0
LINE
  5
112
330
1F
100
AcDbEntity
  8
Layer1
 62
     7
370
    25
100
AcDbLine
 10
60.5645462359477
 20
76.62704903905052
 30
0.0
 11
60.5645462359477
 21
76.75204903905052
 31
0.0
  0
LINE
  5
113
330
1F
100
AcDbEntity
  8
Layer1
 62
     7
370
    25
100
AcDbLine
 10
60.5645462359477
 20
72.74704903905055
 30
0.0
 11
60.5645462359477
 21
72.88204903905054
 31
0.0
  0
LINE
  5
114
330
1F
100
AcDbEntity
  8
Layer1
 62
     7
370
    25
100
AcDbLine
 10
60.00154623594771
 20
72.74704903905055
 30
0.0
 11
60.5645462359477
 21
72.74704903905055
 31
0.0
  0
LINE
  5
115
330
1F
100
AcDbEntity
  8
Layer1
 62
     7
370
     9
100
AcDbLine
 10
60.5645462359477
 20
72.88204903905054
 30
0.0
 11
60.00154623594771
 21
72.88204903905054
 31
0.0
  0
LINE
  5
116
330
1F
100
AcDbEntity
  8
Layer1
 62
     7
370
    25
100
AcDbLine
 10
60.00154623594771
 20
72.88204903905054
 30
0.0
 11
60.00154623594771
 21
76.62704903905052
 31
0.0
  0
LINE
  5
117
330
1F
100
AcDbEntity
  8
Layer1
 62
     7
370
    25
100
AcDbLine
 10
60.00154623594771
 20
56.87704903905032
 30
0.0
 11
60.00154623594771
 21
72.74704903905055
 31
0.0
  0
LINE
  5
118
330
1F
100
AcDbEntity
  8
Layer1
 62
     7
370
     9
100
AcDbLine
 10
67.35384623594767
 20
76.62704903905052
 30
0.0
 11
67.35384623594767
 21
76.75204903905052
 31
0.0
  0
LINE
  5
119
330
1F
100
AcDbEntity
  8
Layer1
 62
     7
370
     9
100
AcDbLine
 10
68.10384623594767
 20
76.62704903905052
 30
0.0
 11
68.10384623594767
 21
76.75204903905052
 31
0.0
  0
LINE
  5
11A
330
1F
100
AcDbEntity
  8
Layer1
 62
     7
370
    25
100
AcDbLine
 10
67.35384623594767
 20
76.62704903905052
 30
0.0
 11
68.10384623594767
 21
76.62704903905052
 31
0.0
  0
LINE
  5
11B
330
1F
100
AcDbEntity
  8
Layer1
 62
     7
370
    25
100
AcDbLine
 10
67.35384623594767
 20
72.88204903905054
 30
0.0
 11
68.10384623594767
 21
72.88204903905054
 31
0.0
  0
LINE
  5
11C
330
1F
100
AcDbEntity
  8
Layer1
 62
     7
370
     9
100
AcDbLine
 10
67.35384623594767
 20
72.74704903905055
 30
0.0
 11
68.10384623594767
 21
72.74704903905055
 31
0.0
  0
LINE
  5
11D
330
1F
100
AcDbEntity
  8
Layer1
 62
     7
370
    25
100
AcDbLine
 10
67.35384623594767
 20
72.74704903905055
 30
0.0
 11
67.35384623594767
 21
72.88204903905054
 31
0.0
  0
LINE
  5
11E
330
1F
100
AcDbEntity
  8
Layer1
 62
     7
370
    25
100
AcDbLine
 10
68.10384623594767
 20
72.74704903905055
 30
0.0
 11
68.10384623594767
 21
72.88204903905054
 31
0.0
  0
LINE
  5
11F
330
1F
100
AcDbEntity
  8
Layer1
 62
     7
370
     9
100
AcDbLine
 10
74.89364623594766
 20
76.62704903905052
 30
0.0
 11
74.89364623594766
 21
76.75204903905052
 31
0.0
  0
LINE
  5
120
330
1F
100
AcDbEntity
  8
Layer1
 62
     7
370
     9
100
AcDbLine
 10
75.64364623594766
 20
76.62704903905052
 30
0.0
 11
75.64364623594766
 21
76.75204903905052
 31
0.0
  0
LINE
  5
121
330
1F
100
AcDbEntity
  8
Layer1
 62
     7
370
    25
100
AcDbLine
 10
74.89364623594766
 20
76.62704903905052
 30
0.0
 11
75.64364623594766
 21
76.62704903905052
 31
0.0
  0
LINE
  5
122
330
1F
100
AcDbEntity
  8
Layer1
 62
     7
370
    25
100
AcDbLine
 10
74.89364623594766
 20
72.88204903905054
 30
0.0
 11
75.64364623594766
 21
72.88204903905054
 31
0.0
  0
LINE
  5
123
330
1F
100
AcDbEntity
  8
Layer1
 62
     7
370
     9
100
AcDbLine
 10
74.89364623594766
 20
72.74704903905055
 30
0.0
 11
75.64364623594766
 21
72.74704903905055
 31
0.0
  0
LINE
  5
124
330
1F
100
AcDbEntity
  8
Layer1
 62
     7
370
    25
100
AcDbLine
 10
74.89364623594766
 20
72.74704903905055
 30
0.0
 11
74.89364623594766
 21
72.88204903905054
 31
0.0
  0
LINE
  5
125
330
1F
100
AcDbEntity
  8
Layer1
 62
     7
370
    25
100
AcDbLine
 10
75.64364623594766
 20
72.74704903905055
 30
0.0
 11
75.64364623594766
 21
72.88204903905054
 31
0.0
  0
LINE
  5
126
330
1F
100
AcDbEntity
  8
Layer1
 62
     7
370
    25
100
AcDbLine
 10
74.89364623594766
 20
76.75204903905052
 30
0.0
 11
68.10384623594767
 21
76.75204903905052
 31
0.0
  0
MTEXT
  5
127
330
1F
100
AcDbEntity
  8
Layer1
 62
     7
370
    25
100
AcDbMText
 10
27.45496806783158
 20
54.26893726451417
 30
0.0
 40
1.333333373069763
 41
9.205395548271637
 71
     1
 72
     1
  1
{\C7;\l\fPlotter|b0|i0|c00|p34;SM2001\P}
 73
     1
 44
1.0
  0
LINE
  5
128
330
1F
100
AcDbEntity
  8
Layer1
 62
     7
370
    25
100
AcDbLine
 10
56.32138949106107
 20
44.01676363455798
 30
0.0
 11
57.58428615708814
 21
44.01676363455798
 31
0.0
  0
ARC
  5
129
330
1F
100
AcDbEntity
  8
Layer1
 62
     7
370
    25
100
AcDbCircle
 10
64.87138949106108
 20
42.04176363455788
 30
0.0
 40
7.55000000000003
100
AcDbArc
 50
164.8356073274939
 51
195.164392672506
  0
MTEXT
  5
12A
330
1F
100
AcDbEntity
  8
Layer1
 62
     7
370
    25
100
AcDbMText
 10
75.30879916380619
 20
54.24100889027225
 30
0.0
 40
1.333333373069763
 41
9.205395548271637
 71
     1
 72
     1
  1
{\C7;\l\fPlotter|b0|i0|c00|p34;SM2002\P}
 73
     1
 44
1.0
  0
LINE
  5
12B
330
1F
100
AcDbEntity
  8
Layer1
 62
     7
370
    25
100
AcDbLine
 10
105.7285520343637
 20
2.416692998749802
 30
0.0
 11
105.7285520343637
 21
2.541692998749802
 31
0.0
  0
LINE
  5
12C
330
1F
100
AcDbEntity
  8
Layer1
 62
     7
370
    25
100
AcDbLine
 10
106.2910520343637
 20
2.416692998749802
 30
0.0
 11
105.7285520343637
 21
2.416692998749802
 31
0.0
  0
MTEXT
  5
12D
330
1F
100
AcDbEntity
  8
Layer1
 62
     7
370
    25
100
AcDbMText
 10
36.44913299025637
 20
20.19758310123941
 30
0.0
 40
1.333333373069763
 41
11.68868373049436
 71
     1
 72
     1
  1
{\C7;\l\fPlotter|b0|i0|c00|p34;SM2005-b\P}
 73
     1
 44
1.0
  0
LINE
  5
12E
330
1F
100
AcDbEntity
  8
Layer1
 62
     7
370
    25
100
AcDbLine
 10
45.71279127490212
 20
22.44768505378619
 30
0.0
 11
37.71279127490212
 21
22.44768505378619
 31
0.0
  0
LINE
  5
12F
330
1F
100
AcDbEntity
  8
Layer1
 62
     7
370
    25
100
AcDbLine
 10
43.68779127490212
 20
22.46768505378628
 30
0.0
 11
43.73779127490211
 21
22.46768505378628
 31
0.0
  0
LINE
  5
130
330
1F
100
AcDbEntity
  8
Layer1
 62
     7
370
    25
100
AcDbLine
 10
43.73779127490211
 20
22.46768505378628
 30
0.0
 11
43.73779127490211
 21
22.8426850537863
 31
0.0
  0
LINE
  5
131
330
1F
100
AcDbEntity
  8
Layer1
 62
     7
370
    25
100
AcDbLine
 10
43.73779127490211
 20
22.8426850537863
 30
0.0
 11
43.68779127490212
 21
22.8426850537863
 31
0.0
  0
LINE
  5
132
330
1F
100
AcDbEntity
  8
Layer1
 62
     7
370
    25
100
AcDbLine
 10
43.68779127490212
 20
22.8426850537863
 30
0.0
 11
43.68779127490212
 21
22.46768505378628
 31
0.0
  0
LINE
  5
133
330
1F
100
AcDbEntity
  8
Layer1
 62
     7
370
    25
100
AcDbLine
 10
41.68779127490212
 20
22.8426850537863
 30
0.0
 11
41.68779127490212
 21
22.46768505378628
 31
0.0
  0
LINE
  5
134
330
1F
100
AcDbEntity
  8
Layer1
 62
     7
370
    25
100
AcDbLine
 10
45.71377708551054
 20
24.3407961809485
 30
0.0
 11
45.71279127490212
 21
22.44768505378619
 31
0.0
  0
LINE
  5
135
330
1F
100
AcDbEntity
  8
Layer1
 62
     7
370
    25
100
AcDbLine
 10
37.71377708551063
 20
24.3407961809485
 30
0.0
 11
37.71279127490212
 21
22.44768505378619
 31
0.0
  0
LINE
  5
136
330
1F
100
AcDbEntity
  8
Layer1
 62
     7
370
    25
100
AcDbLine
 10
57.58428615708797
 20
29.16676363455777
 30
0.0
 11
57.58428615708797
 21
22.21676363455785
 31
0.0
  0
LINE
  5
137
330
1F
100
AcDbEntity
  8
Layer1
 62
     7
370
    25
100
AcDbLine
 10
73.09592622774721
 20
29.17377558039054
 30
0.0
 11
73.0956762288539
 21
29.07377589288824
 31
0.0
  0
LINE
  5
138
330
1F
100
AcDbEntity
  8
Layer1
 62
     7
370
    25
100
AcDbLine
 10
73.09592622774721
 20
29.17377558039054
 30
0.0
 11
76.04591700906445
 21
29.16640061303833
 31
0.0
  0
LINE
  5
139
330
1F
100
AcDbEntity
  8
Layer1
 62
     7
370
    25
100
AcDbLine
 10
76.04591700906445
 20
29.16640061303833
 30
0.0
 11
76.04566703352765
 21
29.06640106071215
 31
0.0
  0
LINE
  5
13A
330
1F
100
AcDbEntity
  8
Layer1
 62
     7
370
    25
100
AcDbLine
 10
76.04566703352765
 20
29.06640106071215
 30
0.0
 11
75.96053535124503
 21
28.5737017643135
 31
0.0
  0
LINE
  5
13B
330
1F
100
AcDbEntity
  8
Layer1
 62
     7
370
    25
100
AcDbLine
 10
73.09562622897363
 20
29.05377591472755
 30
0.0
 11
73.09437623450714
 21
28.55377747721614
 31
0.0
  0
CIRCLE
  5
13C
330
1F
100
AcDbEntity
  8
Layer1
 62
     7
370
    25
100
AcDbCircle
 10
89.53777962453803
 20
24.62513500228104
 30
0.0
 40
1.350000000000023
  0
LINE
  5
13D
330
1F
100
AcDbEntity
  8
Layer1
 62
     7
370
    25
100
AcDbLine
 10
73.08098879377116
 20
23.19879421146912
 30
0.0
 11
75.03098272342203
 21
23.19391936822602
 31
0.0
  0
CIRCLE
  5
13E
330
1F
100
AcDbEntity
  8
Layer1
 62
     7
370
    25
100
AcDbCircle
 10
89.53777962453803
 20
24.62513500228104
 30
0.0
 40
0.6499999999999773
  0
LINE
  5
13F
330
1F
100
AcDbEntity
  8
Layer1
 62
     7
370
    25
100
AcDbLine
 10
75.00965334005122
 20
23.21730577522854
 30
0.0
 11
75.05895752961926
 21
23.20899332125651
 31
0.0
  0
LINE
  5
140
330
1F
100
AcDbEntity
  8
Layer1
 62
     7
370
    25
100
AcDbLine
 10
75.05895752961926
 20
23.20899332125651
 30
0.0
 11
75.12130093440945
 21
23.57877474301695
 31
0.0
  0
LINE
  5
141
330
1F
100
AcDbEntity
  8
Layer1
 62
     7
370
    25
100
AcDbLine
 10
75.12130093440945
 20
23.57877474301695
 30
0.0
 11
75.0719967448414
 21
23.58708719698897
 31
0.0
  0
LINE
  5
142
330
1F
100
AcDbEntity
  8
Layer1
 62
     7
370
    25
100
AcDbLine
 10
75.0719967448414
 20
23.58708719698897
 30
0.0
 11
75.00965334005122
 21
23.21730577522854
 31
0.0
  0
LINE
  5
143
330
1F
100
AcDbEntity
  8
Layer1
 62
     7
370
    25
100
AcDbLine
 10
71.059797193401
 20
23.22794184322092
 30
0.0
 11
71.10910138296904
 21
23.21962938924889
 31
0.0
  0
LINE
  5
144
330
1F
100
AcDbEntity
  8
Layer1
 62
     7
370
    25
100
AcDbLine
 10
71.10910138296904
 20
23.21962938924889
 30
0.0
 11
71.17144478775923
 21
23.58941081100933
 31
0.0
  0
LINE
  5
145
330
1F
100
AcDbEntity
  8
Layer1
 62
     7
370
    25
100
AcDbLine
 10
71.17144478775923
 20
23.58941081100933
 30
0.0
 11
71.12214059819118
 21
23.59772326498135
 31
0.0
  0
LINE
  5
146
330
1F
100
AcDbEntity
  8
Layer1
 62
     7
370
    25
100
AcDbLine
 10
71.12214059819118
 20
23.59772326498135
 30
0.0
 11
71.059797193401
 21
23.22794184322092
 31
0.0
  0
LINE
  5
147
330
1F
100
AcDbEntity
  8
Layer1
 62
     7
370
    25
100
AcDbLine
 10
73.05697628939963
 20
23.21879297710312
 30
0.0
 11
73.10697628939961
 21
23.21879297710312
 31
0.0
  0
LINE
  5
148
330
1F
100
AcDbEntity
  8
Layer1
 62
     7
370
    25
100
AcDbLine
 10
73.10697628939961
 20
23.21879297710312
 30
0.0
 11
73.10697628939961
 21
23.59379297710312
 31
0.0
  0
LINE
  5
149
330
1F
100
AcDbEntity
  8
Layer1
 62
     7
370
    25
100
AcDbLine
 10
73.10697628939961
 20
23.59379297710312
 30
0.0
 11
73.05697628939963
 21
23.59379297710312
 31
0.0
  0
LINE
  5
14A
330
1F
100
AcDbEntity
  8
Layer1
 62
     7
370
    25
100
AcDbLine
 10
73.05697628939963
 20
23.59379297710312
 30
0.0
 11
73.05697628939963
 21
23.21879297710312
 31
0.0
  0
LINE
  5
14B
330
1F
100
AcDbEntity
  8
Layer1
 62
     7
370
    25
100
AcDbLine
 10
75.03430543483523
 20
23.21314954824253
 30
0.0
 11
75.09815419654734
 21
23.58267402054143
 31
0.0
  0
LINE
  5
14C
330
1F
100
AcDbEntity
  8
Layer1
 62
     7
370
    25
100
AcDbLine
 10
73.08098879377116
 20
23.19879421146912
 30
0.0
 11
71.08099504372538
 21
23.20379418933503
 31
0.0
  0
LINE
  5
14D
330
1F
100
AcDbEntity
  8
Layer1
 62
     7
370
    25
100
AcDbLine
 10
71.08099504372538
 20
23.20379418933503
 30
0.0
 11
69.06046968697311
 21
23.54444524098925
 31
0.0
  0
LINE
  5
14E
330
1F
100
AcDbEntity
  8
Layer1
 62
     7
370
    25
100
AcDbLine
 10
89.2000520343637
 20
2.541692998749802
 30
0.0
 11
89.2000520343637
 21
2.416692998749802
 31
0.0
  0
LINE
  5
14F
330
1F
100
AcDbEntity
  8
Layer1
 62
     7
370
    25
100
AcDbLine
 10
89.2000520343637
 20
2.416692998749802
 30
0.0
 11
88.45005203436381
 21
2.416692998749802
 31
0.0
  0
LINE
  5
150
330
1F
100
AcDbEntity
  8
Layer1
 62
     7
370
    25
100
AcDbLine
 10
88.45005203436381
 20
2.416692998749802
 30
0.0
 11
88.45005203436381
 21
2.541692998749802
 31
0.0
  0
LINE
  5
151
330
1F
100
AcDbEntity
  8
Layer1
 62
     7
370
    25
100
AcDbLine
 10
71.9215520343638
 20
2.416692998749802
 30
0.0
 11
71.35929703436386
 21
2.416692998749802
 31
0.0
  0
MTEXT
  5
152
330
1F
100
AcDbEntity
  8
Layer1
 62
     7
370
    25
100
AcDbMText
 10
15.68583170639229
 20
20.01675437431669
 30
0.0
 40
1.333333373069763
 41
9.205395548271637
 71
     1
 72
     1
  1
{\C7;\l\fPlotter|b0|i0|c00|p34;SM2004\P}
 73
     1
 44
1.0
  0
LINE
  5
153
330
1F
100
AcDbEntity
  8
Layer1
 62
     7
370
    25
100
AcDbLine
 10
11.96289054845515
 20
31.42933897763606
 30
0.0
 11
11.96289054845515
 21
21.76535334821824
 31
0.0
  0
LINE
  5
154
330
1F
100
AcDbEntity
  8
Layer1
 62
     7
370
     9
100
AcDbLine
 10
12.46289054845506
 20
21.76535334821824
 30
0.0
 11
12.46289054845506
 21
21.64035334821824
 31
0.0
  0
LINE
  5
155
330
1F
100
AcDbEntity
  8
Layer1
 62
     7
370
     9
100
AcDbLine
 10
12.46289054845506
 20
21.76535334821824
 30
0.0
 11
12.08789054845518
 21
21.76535334821824
 31
0.0
  0
LINE
  5
156
330
1F
100
AcDbEntity
  8
Layer1
 62
     7
370
    25
100
AcDbLine
 10
27.92089054845489
 20
31.42933897763606
 30
0.0
 11
27.92089054845512
 21
21.76535334821824
 31
0.0
  0
LINE
  5
157
330
1F
100
AcDbEntity
  8
Layer1
 62
     7
370
     9
100
AcDbLine
 10
27.92089054845512
 20
21.76535334821824
 30
0.0
 11
27.79589054845512
 21
21.76535334821824
 31
0.0
  0
LINE
  5
158
330
1F
100
AcDbEntity
  8
Layer1
 62
     7
370
     9
100
AcDbLine
 10
27.42089054845501
 20
21.76535334821824
 30
0.0
 11
27.42089054845501
 21
21.64035334821824
 31
0.0
  0
LINE
  5
159
330
1F
100
AcDbEntity
  8
Layer1
 62
     7
370
     9
100
AcDbLine
 10
27.79589054845501
 20
21.76535334821824
 30
0.0
 11
27.42089054845501
 21
21.76535334821824
 31
0.0
  0
LINE
  5
15A
330
1F
100
AcDbEntity
  8
Layer1
 62
     7
370
    25
100
AcDbLine
 10
11.96289054845515
 20
31.42933897763606
 30
0.0
 11
27.92089054845489
 21
31.42933897763606
 31
0.0
  0
LINE
  5
15B
330
1F
100
AcDbEntity
  8
Layer1
 62
     7
370
     9
100
AcDbLine
 10
22.93489054845499
 20
21.64035334821824
 30
0.0
 11
27.42089054845501
 21
21.64035334821824
 31
0.0
  0
LINE
  5
15C
330
1F
100
AcDbEntity
  8
Layer1
 62
     7
370
     9
100
AcDbLine
 10
16.94889054845505
 20
21.76535334821824
 30
0.0
 11
16.94889054845505
 21
21.64035334821824
 31
0.0
  0
LINE
  5
15D
330
1F
100
AcDbEntity
  8
Layer1
 62
     7
370
     9
100
AcDbLine
 10
12.46289054845506
 20
21.64035334821824
 30
0.0
 11
16.94889054845505
 21
21.64035334821824
 31
0.0
  0
LINE
  5
15E
330
1F
100
AcDbEntity
  8
Layer1
 62
     7
370
     9
100
AcDbLine
 10
17.32389054845505
 20
21.76535334821824
 30
0.0
 11
16.94889054845505
 21
21.76535334821824
 31
0.0
  0
LINE
  5
15F
330
1F
100
AcDbEntity
  8
Layer1
 62
     7
370
     9
100
AcDbLine
 10
17.69889054845511
 20
21.76535334821824
 30
0.0
 11
17.69889054845511
 21
21.64035334821824
 31
0.0
  0
LINE
  5
160
330
1F
100
AcDbEntity
  8
Layer1
 62
     7
370
     9
100
AcDbLine
 10
17.69889054845511
 20
21.76535334821824
 30
0.0
 11
17.32389054845505
 21
21.76535334821824
 31
0.0
  0
LINE
  5
161
330
1F
100
AcDbEntity
  8
Layer1
 62
     7
370
     9
100
AcDbLine
 10
17.69889054845511
 20
21.64035334821824
 30
0.0
 11
22.1848905484551
 21
21.64035334821824
 31
0.0
  0
LINE
  5
162
330
1F
100
AcDbEntity
  8
Layer1
 62
     7
370
     9
100
AcDbLine
 10
22.1848905484551
 20
21.76535334821824
 30
0.0
 11
22.1848905484551
 21
21.64035334821824
 31
0.0
  0
LINE
  5
163
330
1F
100
AcDbEntity
  8
Layer1
 62
     7
370
     9
100
AcDbLine
 10
22.55989054845521
 20
21.76535334821824
 30
0.0
 11
22.1848905484551
 21
21.76535334821824
 31
0.0
  0
LINE
  5
164
330
1F
100
AcDbEntity
  8
Layer1
 62
     7
370
     9
100
AcDbLine
 10
22.93489054845499
 20
21.76535334821824
 30
0.0
 11
22.93489054845499
 21
21.64035334821824
 31
0.0
  0
LINE
  5
165
330
1F
100
AcDbEntity
  8
Layer1
 62
     7
370
     9
100
AcDbLine
 10
22.93489054845499
 20
21.76535334821824
 30
0.0
 11
22.55989054845521
 21
21.76535334821824
 31
0.0
  0
ARC
  5
166
330
1F
100
AcDbEntity
  8
Layer1
 62
     7
370
     5
100
AcDbCircle
 10
-14.55688671776986
 20
22.88452778968855
 30
0.0
 40
1.208767001256725
210
0.0
220
0.0
230
-1.0
100
AcDbArc
 50
57.68859297107042
 51
65.78235767936995
  0
ARC
  5
167
330
1F
100
AcDbEntity
  8
Layer1
 62
     7
370
     5
100
AcDbCircle
 10
-14.55578017815331
 20
22.89102419669319
 30
0.0
 40
1.202389551129825
210
0.0
220
0.0
230
-1.0
100
AcDbArc
 50
65.70346119616832
 51
98.25460806346891
  0
ARC
  5
168
330
1F
100
AcDbEntity
  8
Layer1
 62
     7
370
     5
100
AcDbCircle
 10
-14.5680723697054
 20
22.99286921515363
 30
0.0
 40
1.099837590910107
210
0.0
220
0.0
230
-1.0
100
AcDbArc
 50
98.38261919415541
 51
103.8548614845358
  0
LINE
  5
169
330
1F
100
AcDbEntity
  8
Layer1
 62
     7
370
     5
100
AcDbLine
 10
14.83144302324113
 20
24.06070751060622
 30
0.0
 11
15.04700684243503
 21
24.00451772190286
 31
0.0
  0
ARC
  5
16A
330
1F
100
AcDbEntity
  8
Layer1
 62
     7
370
     5
100
AcDbCircle
 10
-10.5754032768768
 20
7.363651769352927
 30
0.0
 40
17.23118272488133
210
0.0
220
0.0
230
-1.0
100
AcDbArc
 50
105.0407804044458
 51
108.2148553083817
  0
ARC
  5
16B
330
1F
100
AcDbEntity
  8
Layer1
 62
     7
370
     5
100
AcDbCircle
 10
-12.20942904402109
 20
12.53863260374021
 30
0.0
 40
11.80493051671286
210
0.0
220
0.0
230
-1.0
100
AcDbArc
 50
108.5325474866999
 51
113.9267738707455
  0
ARC
  5
16C
330
1F
100
AcDbEntity
  8
Layer1
 62
     7
370
     5
100
AcDbCircle
 10
-16.88311956273996
 20
22.99311244628308
 30
0.0
 40
0.3548083438053151
210
0.0
220
0.0
230
-1.0
100
AcDbArc
 50
108.7450857159056
 51
135.6822962555861
  0
ARC
  5
16D
330
1F
100
AcDbEntity
  8
Layer1
 62
     7
370
     5
100
AcDbCircle
 10
-16.88701031951818
 20
22.99126851845659
 30
0.0
 40
0.3533359010544229
210
0.0
220
0.0
230
-1.0
100
AcDbArc
 50
135.0275724259531
 51
194.624912730917
  0
ARC
  5
16E
330
1F
100
AcDbEntity
  8
Layer1
 62
     7
370
     5
100
AcDbCircle
 10
-16.88616126955404
 20
22.98653891909692
 30
0.0
 40
0.3529957749050974
210
0.0
220
0.0
230
-1.0
100
AcDbArc
 50
193.8472906778268
 51
226.3476784074423
  0
ARC
  5
16F
330
1F
100
AcDbEntity
  8
Layer1
 62
     7
370
     5
100
AcDbCircle
 10
-16.88191633394494
 20
22.98788390537351
 30
0.0
 40
0.3569055588166282
210
0.0
220
0.0
230
-1.0
100
AcDbArc
 50
226.0036548949853
 51
252.7801436960371
  0
ARC
  5
170
330
1F
100
AcDbEntity
  8
Layer1
 62
     7
370
     5
100
AcDbCircle
 10
-13.24660788902251
 20
29.97783514992085
 30
0.0
 40
8.230207819794986
210
0.0
220
0.0
230
-1.0
100
AcDbArc
 50
242.9645982682262
 51
245.9907625418397
  0
ARC
  5
171
330
1F
100
AcDbEntity
  8
Layer1
 62
     7
370
     5
100
AcDbCircle
 10
-13.2483560507283
 20
29.9759039880816
 30
0.0
 40
8.22773248342035
210
0.0
220
0.0
230
-1.0
100
AcDbArc
 50
245.9964111912242
 51
249.0234232944974
  0
ARC
  5
172
330
1F
100
AcDbEntity
  8
Layer1
 62
     7
370
     5
100
AcDbCircle
 10
-13.23342689206337
 20
30.01675786125162
 30
0.0
 40
8.271223303955566
210
0.0
220
0.0
230
-1.0
100
AcDbArc
 50
249.0281709288636
 51
252.0399220856055
  0
ARC
  5
173
330
1F
100
AcDbEntity
  8
Layer1
 62
     7
370
     5
100
AcDbCircle
 10
-13.29249630447286
 20
29.82145407753768
 30
0.0
 40
8.067223064267829
210
0.0
220
0.0
230
-1.0
100
AcDbArc
 50
252.0112877899959
 51
255.0781707076268
  0
ARC
  5
174
330
1F
100
AcDbEntity
  8
Layer1
 62
     7
370
     5
100
AcDbCircle
 10
-12.99501681050499
 20
31.00667006232771
 30
0.0
 40
9.289089453208877
210
0.0
220
0.0
230
-1.0
100
AcDbArc
 50
255.1876315334743
 51
257.5057397170231
  0
ARC
  5
175
330
1F
100
AcDbEntity
  8
Layer1
 62
     7
370
     5
100
AcDbCircle
 10
-14.53260448446984
 20
23.92592514338872
 30
0.0
 40
2.043618881560492
210
0.0
220
0.0
230
-1.0
100
AcDbArc
 50
256.6453495628966
 51
262.3051134135196
  0
ARC
  5
176
330
1F
100
AcDbEntity
  8
Layer1
 62
     7
370
     5
100
AcDbCircle
 10
-14.63433859021095
 20
23.32233642229932
 30
0.0
 40
1.431983074081083
210
0.0
220
0.0
230
-1.0
100
AcDbArc
 50
263.1053227715361
 51
282.2201270205132
  0
ARC
  5
177
330
1F
100
AcDbEntity
  8
Layer1
 62
     7
370
     5
100
AcDbCircle
 10
-14.63461063081511
 20
23.32706992290781
 30
0.0
 40
1.436667092015616
210
0.0
220
0.0
230
-1.0
100
AcDbArc
 50
282.1907723939447
 51
288.5414149542199
  0
ARC
  5
178
330
1F
100
AcDbEntity
  8
Layer1
 62
     7
370
     5
100
AcDbCircle
 10
-14.6341744226522
 20
23.32579231835916
 30
0.0
 40
1.43531709290751
210
0.0
220
0.0
230
-1.0
100
AcDbArc
 50
288.5411235155445
 51
294.8973996487936
  0
ARC
  5
179
330
1F
100
AcDbEntity
  8
Layer1
 62
     7
370
     5
100
AcDbCircle
 10
-14.63466538098337
 20
23.32615617882857
 30
0.0
 40
1.435853857871077
210
0.0
220
0.0
230
-1.0
100
AcDbArc
 50
294.9090573698292
 51
301.2636617525539
  0
ARC
  5
17A
330
1F
100
AcDbEntity
  8
Layer1
 62
     7
370
     5
100
AcDbCircle
 10
-14.63511855412637
 20
23.32592308612868
 30
0.0
 40
1.435889889454274
210
0.0
220
0.0
230
-1.0
100
AcDbArc
 50
301.2839457271253
 51
307.6402447610597
  0
ARC
  5
17B
330
1F
100
AcDbEntity
  8
Layer1
 62
     7
370
     5
100
AcDbCircle
 10
-14.63484579193048
 20
23.32662753613948
 30
0.0
 40
1.43628128493762
210
0.0
220
0.0
230
-1.0
100
AcDbArc
 50
307.6144667724608
 51
313.9656818506716
  0
ARC
  5
17C
330
1F
100
AcDbEntity
  8
Layer1
 62
     7
370
     5
100
AcDbCircle
 10
-14.84873642475041
 20
23.0510257972843
 30
0.0
 40
1.428752627925121
210
0.0
220
0.0
230
-1.0
100
AcDbArc
 50
327.9505037607427
 51
337.1982685200258
  0
ARC
  5
17D
330
1F
100
AcDbEntity
  8
Layer1
 62
     7
370
     5
100
AcDbCircle
 10
-14.84411981303365
 20
23.04941533280817
 30
0.0
 40
1.423872705378272
210
0.0
220
0.0
230
-1.0
100
AcDbArc
 50
337.1860144721267
 51
5.027377336020442
  0
ARC
  5
17E
330
1F
100
AcDbEntity
  8
Layer1
 62
     7
370
     5
100
AcDbCircle
 10
-14.84927540160661
 20
23.04935742858407
 30
0.0
 40
1.42901358868307
210
0.0
220
0.0
230
-1.0
100
AcDbArc
 50
5.011575569505481
 51
14.25915728065441
  0
ARC
  5
17F
330
1F
100
AcDbEntity
  8
Layer1
 62
     7
370
     5
100
AcDbCircle
 10
-14.55817430647514
 20
22.88427276526693
 30
0.0
 40
1.209934667464472
210
0.0
220
0.0
230
-1.0
100
AcDbArc
 50
25.29933633528688
 51
33.38513540429331
  0
ARC
  5
180
330
1F
100
AcDbEntity
  8
Layer1
 62
     7
370
     5
100
AcDbCircle
 10
-14.55680355635113
 20
22.88490180530437
 30
0.0
 40
1.20844398746152
210
0.0
220
0.0
230
-1.0
100
AcDbArc
 50
33.39599446902658
 51
41.49195659162466
  0
ARC
  5
181
330
1F
100
AcDbEntity
  8
Layer1
 62
     7
370
     5
100
AcDbCircle
 10
-14.55670946629093
 20
22.88461128300179
 30
0.0
 40
1.208566017199124
210
0.0
220
0.0
230
-1.0
100
AcDbArc
 50
41.50522854807712
 51
49.5984667923137
  0
ARC
  5
182
330
1F
100
AcDbEntity
  8
Layer1
 62
     7
370
     5
100
AcDbCircle
 10
-14.55701416735256
 20
22.88462373288706
 30
0.0
 40
1.208754049228813
210
0.0
220
0.0
230
-1.0
100
AcDbArc
 50
49.58708562429733
 51
57.68105634025506
  0
LINE
  5
183
330
1F
100
AcDbEntity
  8
Layer1
 62
     7
370
     9
100
AcDbLine
 10
12.08789054845518
 20
21.76535334821824
 30
0.0
 11
11.96289054845515
 21
21.76535334821824
 31
0.0
  0
LINE
  5
184
330
1F
100
AcDbEntity
  8
Layer1
 62
     7
370
    25
100
AcDbLine
 10
89.2000520343637
 20
2.541692998749802
 30
0.0
 11
97.08930203436373
 21
2.541692998749802
 31
0.0
  0
MTEXT
  5
185
330
1F
100
AcDbEntity
  8
Layer1
 62
     7
370
    25
100
AcDbMText
 10
52.76899595601906
 20
20.26982084407873
 30
0.0
 40
1.333333373069763
 41
11.33135159855212
 71
     1
 72
     1
  1
{\C7;\l\fPlotter|b0|i0|c00|p34;SM2006-b\P}
 73
     1
 44
1.0
  0
LINE
  5
186
330
1F
100
AcDbEntity
  8
Layer1
 62
     7
370
    25
100
AcDbLine
 10
97.83930203436373
 20
2.541692998749802
 30
0.0
 11
105.7285520343637
 21
2.541692998749802
 31
0.0
  0
LINE
  5
187
330
1F
100
AcDbEntity
  8
Layer1
 62
     7
370
    25
100
AcDbLine
 10
56.32138949106107
 20
44.01676363455798
 30
0.0
 11
56.32138949106096
 21
22.21676363455785
 31
0.0
  0
MTEXT
  5
188
330
1F
100
AcDbEntity
  8
Layer1
 62
     7
370
    25
100
AcDbMText
 10
105.6374917674712
 20
55.02876291185731
 30
0.0
 40
1.333333373069763
 41
9.205395548271637
 71
     1
 72
     1
  1
{\C7;\l\fPlotter|b0|i0|c00|p34;SM2003\P}
 73
     1
 44
1.0
  0
LINE
  5
189
330
1F
100
AcDbEntity
  8
Layer1
 62
     7
370
    25
100
AcDbLine
 10
79.8108020343638
 20
2.416692998749802
 30
0.0
 11
79.8108020343638
 21
2.541692998749802
 31
0.0
  0
ARC
  5
18A
330
1F
100
AcDbEntity
  8
Layer1
 62
     7
370
    25
100
AcDbCircle
 10
64.87138949106102
 20
31.14176363455785
 30
0.0
 40
7.550000000000034
100
AcDbArc
 50
164.8356073274938
 51
195.1643926725064
  0
LINE
  5
18B
330
1F
100
AcDbEntity
  8
Layer1
 62
     7
370
    25
100
AcDbLine
 10
57.58428615708803
 20
33.1167636345579
 30
0.0
 11
57.58428615708803
 21
40.06676363455786
 31
0.0
  0
LINE
  5
18C
330
1F
100
AcDbEntity
  8
Layer1
 62
     7
370
    25
100
AcDbLine
 10
43.68877708551054
 20
24.32079618094852
 30
0.0
 11
43.68877708551054
 21
23.94579618094852
 31
0.0
  0
LINE
  5
18D
330
1F
100
AcDbEntity
  8
Layer1
 62
     7
370
    25
100
AcDbLine
 10
43.73877708551054
 20
24.32079618094852
 30
0.0
 11
43.68877708551054
 21
24.32079618094852
 31
0.0
  0
LINE
  5
18E
330
1F
100
AcDbEntity
  8
Layer1
 62
     7
370
    25
100
AcDbLine
 10
43.73877708551054
 20
23.94579618094852
 30
0.0
 11
43.73877708551054
 21
24.32079618094852
 31
0.0
  0
LINE
  5
18F
330
1F
100
AcDbEntity
  8
Layer1
 62
     7
370
    25
100
AcDbLine
 10
43.68877708551054
 20
23.94579618094852
 30
0.0
 11
43.73877708551054
 21
23.94579618094852
 31
0.0
  0
LINE
  5
190
330
1F
100
AcDbEntity
  8
Layer1
 62
     7
370
    25
100
AcDbLine
 10
41.68877708551054
 20
24.32079618094852
 30
0.0
 11
41.68877708551054
 21
23.94579618094852
 31
0.0
  0
LINE
  5
191
330
1F
100
AcDbEntity
  8
Layer1
 62
     7
370
    25
100
AcDbLine
 10
41.73877708551054
 20
24.32079618094852
 30
0.0
 11
41.68877708551054
 21
24.32079618094852
 31
0.0
  0
LINE
  5
192
330
1F
100
AcDbEntity
  8
Layer1
 62
     7
370
    25
100
AcDbLine
 10
41.73877708551054
 20
23.94579618094852
 30
0.0
 11
41.73877708551054
 21
24.32079618094852
 31
0.0
  0
LINE
  5
193
330
1F
100
AcDbEntity
  8
Layer1
 62
     7
370
    25
100
AcDbLine
 10
41.68877708551054
 20
23.94579618094852
 30
0.0
 11
41.73877708551054
 21
23.94579618094852
 31
0.0
  0
LINE
  5
194
330
1F
100
AcDbEntity
  8
Layer1
 62
     7
370
    25
100
AcDbLine
 10
39.68877708551054
 20
24.32079618094852
 30
0.0
 11
39.68877708551054
 21
23.94579618094852
 31
0.0
  0
LINE
  5
195
330
1F
100
AcDbEntity
  8
Layer1
 62
     7
370
    25
100
AcDbLine
 10
39.73877708551054
 20
24.32079618094852
 30
0.0
 11
39.68877708551054
 21
24.32079618094852
 31
0.0
  0
LINE
  5
196
330
1F
100
AcDbEntity
  8
Layer1
 62
     7
370
    25
100
AcDbLine
 10
39.73877708551054
 20
23.94579618094852
 30
0.0
 11
39.73877708551054
 21
24.32079618094852
 31
0.0
  0
LINE
  5
197
330
1F
100
AcDbEntity
  8
Layer1
 62
     7
370
    25
100
AcDbLine
 10
39.68877708551054
 20
23.94579618094852
 30
0.0
 11
39.73877708551054
 21
23.94579618094852
 31
0.0
  0
LINE
  5
198
330
1F
100
AcDbEntity
  8
Layer1
 62
     7
370
    25
100
AcDbLine
 10
45.71377708551054
 20
24.3407961809485
 30
0.0
 11
43.71377708551054
 21
24.3407961809485
 31
0.0
  0
ARC
  5
199
330
1F
100
AcDbEntity
  8
Layer1
 62
     7
370
    25
100
AcDbCircle
 10
38.71377708551054
 20
31.64768505378622
 30
0.0
 40
7.374999999999928
100
AcDbArc
 50
262.2070756645771
 51
277.7929243354229
  0
LINE
  5
19A
330
1F
100
AcDbEntity
  8
Layer1
 62
     7
370
    25
100
AcDbLine
 10
41.71377708551066
 20
24.3407961809485
 30
0.0
 11
39.71377708551066
 21
24.3407961809485
 31
0.0
  0
ARC
  5
19B
330
1F
100
AcDbEntity
  8
Layer1
 62
     7
370
    25
100
AcDbCircle
 10
42.71377708551054
 20
31.64768505378622
 30
0.0
 40
7.374999999999856
100
AcDbArc
 50
262.2070756645779
 51
277.7929243354225
  0
LINE
  5
19C
330
1F
100
AcDbEntity
  8
Layer1
 62
     7
370
    25
100
AcDbLine
 10
41.68779127490212
 20
22.46768505378628
 30
0.0
 11
41.73779127490211
 21
22.46768505378628
 31
0.0
  0
LINE
  5
19D
330
1F
100
AcDbEntity
  8
Layer1
 62
     7
370
    25
100
AcDbLine
 10
41.73779127490211
 20
22.46768505378628
 30
0.0
 11
41.73779127490211
 21
22.8426850537863
 31
0.0
  0
LINE
  5
19E
330
1F
100
AcDbEntity
  8
Layer1
 62
     7
370
    25
100
AcDbLine
 10
41.73779127490211
 20
22.8426850537863
 30
0.0
 11
41.68779127490212
 21
22.8426850537863
 31
0.0
  0
LINE
  5
19F
330
1F
100
AcDbEntity
  8
Layer1
 62
     7
370
    25
100
AcDbLine
 10
39.68779127490212
 20
22.46768505378628
 30
0.0
 11
39.73779127490211
 21
22.46768505378628
 31
0.0
  0
LINE
  5
1A0
330
1F
100
AcDbEntity
  8
Layer1
 62
     7
370
    25
100
AcDbLine
 10
39.73779127490211
 20
22.46768505378628
 30
0.0
 11
39.73779127490211
 21
22.8426850537863
 31
0.0
  0
LINE
  5
1A1
330
1F
100
AcDbEntity
  8
Layer1
 62
     7
370
    25
100
AcDbLine
 10
39.73779127490211
 20
22.8426850537863
 30
0.0
 11
39.68779127490212
 21
22.8426850537863
 31
0.0
  0
LINE
  5
1A2
330
1F
100
AcDbEntity
  8
Layer1
 62
     7
370
    25
100
AcDbLine
 10
39.68779127490212
 20
22.8426850537863
 30
0.0
 11
39.68779127490212
 21
22.46768505378628
 31
0.0
  0
LINE
  5
1A3
330
1F
100
AcDbEntity
  8
Layer1
 62
     7
370
    25
100
AcDbLine
 10
57.58428615708797
 20
22.21676363455785
 30
0.0
 11
56.32138949106096
 21
22.21676363455785
 31
0.0
  0
CIRCLE
  5
1A4
330
1F
100
AcDbEntity
  8
Layer1
 62
     7
370
    25
100
AcDbCircle
 10
88.22819015399195
 20
-39.94348180320041
 30
0.0
 40
0.2750000000000057
  0
LINE
  5
1A5
330
1F
100
AcDbEntity
  8
Layer1
 62
     7
370
    25
100
AcDbLine
 10
86.22819015399195
 20
-39.50598180320041
 30
0.0
 11
86.22819015399195
 21
-40.38098180320041
 31
0.0
  0
LINE
  5
1A6
330
1F
100
AcDbEntity
  8
Layer1
 62
     7
370
    25
100
AcDbLine
 10
86.22819015399195
 20
-39.50598180320041
 30
0.0
 11
90.228190153992
 21
-39.50598180320041
 31
0.0
  0
LINE
  5
1A7
330
1F
100
AcDbEntity
  8
Layer1
 62
     7
370
    25
100
AcDbLine
 10
86.22819015399195
 20
-40.38098180320041
 30
0.0
 11
90.228190153992
 21
-40.38098180320041
 31
0.0
  0
LINE
  5
1A8
330
1F
100
AcDbEntity
  8
Layer1
 62
     7
370
    25
100
AcDbLine
 10
90.228190153992
 20
-39.50598180320041
 30
0.0
 11
90.228190153992
 21
-40.38098180320041
 31
0.0
  0
LINE
  5
1A9
330
1F
100
AcDbEntity
  8
Layer1
 62
     7
370
    25
100
AcDbLine
 10
17.84099070690949
 20
-37.94180699140591
 30
0.0
 11
24.82175670067419
 21
-36.52379664281219
 31
0.0
  0
CIRCLE
  5
1AA
330
1F
100
AcDbEntity
  8
Layer1
 62
     7
370
    25
100
AcDbCircle
 10
18.78299370397123
 20
-37.44529172442716
 30
0.0
 40
0.0939999999999911
  0
CIRCLE
  5
1AB
330
1F
100
AcDbEntity
  8
Layer1
 62
     7
370
    25
100
AcDbCircle
 10
24.27212005032304
 20
-36.43992188599017
 30
0.0
 40
0.0939999999999957
  0
CIRCLE
  5
1AC
330
1F
100
AcDbEntity
  8
Layer1
 62
     7
370
    25
100
AcDbCircle
 10
21.28169306765393
 20
-36.98763838998755
 30
0.0
 40
0.0940000000000381
  0
CIRCLE
  5
1AD
330
1F
100
AcDbEntity
  8
Layer1
 62
     7
370
    25
100
AcDbCircle
 10
26.72459205577458
 20
-23.92494733899883
 30
0.0
 40
0.0940000000000353
  0
CIRCLE
  5
1AE
330
1F
100
AcDbEntity
  8
Layer1
 62
     7
370
    25
100
AcDbCircle
 10
28.44132985063816
 20
-26.43402251744887
 30
0.0
 40
0.0939999999999878
  0
CIRCLE
  5
1AF
330
1F
100
AcDbEntity
  8
Layer1
 62
     7
370
    25
100
AcDbCircle
 10
25.29014417910146
 20
-21.82844921743992
 30
0.0
 40
0.0940000000000041
  0
LINE
  5
1B0
330
1F
100
AcDbEntity
  8
Layer1
 62
     7
370
    25
100
AcDbLine
 10
43.24202377048401
 20
-36.78870958323418
 30
0.0
 11
50.17912460593139
 21
-38.40688114622046
 31
0.0
  0
ARC
  5
1B1
330
1F
100
AcDbEntity
  8
Layer1
 62
     7
370
    25
100
AcDbCircle
 10
34.06078560753939
 20
-34.64706297023341
 30
0.0
 40
9.427713636915817
100
AcDbArc
 50
346.8697790334616
 51
55.07396083412323
  0
ARC
  5
1B2
330
1F
100
AcDbEntity
  8
Layer1
 62
     7
370
    25
100
AcDbCircle
 10
34.06078560753939
 20
-34.64706297023341
 30
0.0
 40
16.55104482452897
100
AcDbArc
 50
346.8697790334613
 51
55.07396083412339
  0
CIRCLE
  5
1B3
330
1F
100
AcDbEntity
  8
Layer1
 62
     7
370
    25
100
AcDbCircle
 10
43.19665301829285
 20
-22.08613401323839
 30
0.0
 40
0.0939999999999845
  0
CIRCLE
  5
1B4
330
1F
100
AcDbEntity
  8
Layer1
 62
     7
370
    25
100
AcDbCircle
 10
39.91424605675861
 20
-26.59912427437629
 30
0.0
 40
0.0939999999999728
  0
CIRCLE
  5
1B5
330
1F
100
AcDbEntity
  8
Layer1
 62
     7
370
    25
100
AcDbCircle
 10
41.70247203781962
 20
-24.14048750818137
 30
0.0
 40
0.0940000000000641
  0
CIRCLE
  5
1B6
330
1F
100
AcDbEntity
  8
Layer1
 62
     7
370
    25
100
AcDbCircle
 10
46.76723597771685
 20
-37.35438977517222
 30
0.0
 40
0.0939999999999763
  0
CIRCLE
  5
1B7
330
1F
100
AcDbEntity
  8
Layer1
 62
     7
370
    25
100
AcDbCircle
 10
43.79380794107594
 20
-36.72085002239837
 30
0.0
 40
0.0940000000000188
  0
CIRCLE
  5
1B8
330
1F
100
AcDbEntity
  8
Layer1
 62
     7
370
    25
100
AcDbCircle
 10
49.25173159863299
 20
-37.8837541055162
 30
0.0
 40
0.0940000000000188
  0
CIRCLE
  5
1B9
330
1F
100
AcDbEntity
  8
Layer1
 62
     7
370
    25
100
AcDbCircle
 10
42.7064944524859
 20
-21.7438568501268
 30
0.0
 40
0.0939999999999712
  0
CIRCLE
  5
1BA
330
1F
100
AcDbEntity
  8
Layer1
 62
     7
370
    25
100
AcDbCircle
 10
39.60019555122925
 20
-26.3798231673368
 30
0.0
 40
0.0939999999999619
  0
CIRCLE
  5
1BB
330
1F
100
AcDbEntity
  8
Layer1
 62
     7
370
    25
100
AcDbCircle
 10
41.29247943475234
 20
-23.85419014470761
 30
0.0
 40
0.0940000000000318
  0
CIRCLE
  5
1BC
330
1F
100
AcDbEntity
  8
Layer1
 62
     7
370
    25
100
AcDbCircle
 10
27.14265314070097
 20
-23.65056613670514
 30
0.0
 40
0.093999999999956
  0
CIRCLE
  5
1BD
330
1F
100
AcDbEntity
  8
Layer1
 62
     7
370
    25
100
AcDbCircle
 10
28.76156073792994
 20
-26.22384907860279
 30
0.0
 40
0.0940000000000096
  0
CIRCLE
  5
1BE
330
1F
100
AcDbEntity
  8
Layer1
 62
     7
370
    25
100
AcDbCircle
 10
25.78994885917164
 20
-21.50041818567376
 30
0.0
 40
0.094000000000034
  0
ARC
  5
1BF
330
1F
100
AcDbEntity
  8
Layer1
 62
     7
370
    25
100
AcDbCircle
 10
34.06078560753944
 20
-34.64706297023352
 30
0.0
 40
16.55104482452906
100
AcDbArc
 50
55.07396083412362
 51
123.2781426347853
  0
ARC
  5
1C0
330
1F
100
AcDbEntity
  8
Layer1
 62
     7
370
    25
100
AcDbCircle
 10
34.06078560753944
 20
-34.64706297023352
 30
0.0
 40
9.427713636915778
100
AcDbArc
 50
55.07396083412364
 51
123.278142634785
  0
LINE
  5
1C1
330
1F
100
AcDbEntity
  8
Layer1
 62
     7
370
    25
100
AcDbLine
 10
39.4697769017754
 20
-26.90096032799843
 30
0.0
 11
39.75603617582352
 21
-26.4910144437388
 31
0.0
  0
LINE
  5
1C2
330
1F
100
AcDbEntity
  8
Layer1
 62
     7
370
    25
100
AcDbLine
 10
43.52405008028011
 20
-21.09492099977387
 30
0.0
 11
43.23779080623204
 21
-21.50486688403355
 31
0.0
  0
LINE
  5
1C3
330
1F
100
AcDbEntity
  8
Layer1
 62
     7
370
    25
100
AcDbLine
 10
42.06943203912395
 20
-23.17804889536682
 30
0.0
 11
40.92439494293153
 21
-24.81783243240552
 31
0.0
  0
LINE
  5
1C4
330
1F
100
AcDbEntity
  8
Layer1
 62
     7
370
    25
100
AcDbLine
 10
26.38526871861485
 20
-22.95248550871508
 30
0.0
 11
27.48267658214719
 21
-24.6245189955381
 31
0.0
  0
LINE
  5
1C5
330
1F
100
AcDbEntity
  8
Layer1
 62
     7
370
    25
100
AcDbLine
 10
24.99115731199863
 20
-20.82838832143846
 30
0.0
 11
25.26550927788169
 21
-21.24639669314416
 31
0.0
  0
LINE
  5
1C6
330
1F
100
AcDbEntity
  8
Layer1
 62
     7
370
    25
100
AcDbLine
 10
28.87678798876338
 20
-26.74861618281485
 30
0.0
 11
28.60243602288024
 21
-26.33060781110904
 31
0.0
  0
ARC
  5
1C7
330
1F
100
AcDbEntity
  8
Layer1
 62
     7
370
    25
100
AcDbCircle
 10
34.06078560753956
 20
-34.64706297023341
 30
0.0
 40
9.427713636915648
100
AcDbArc
 50
123.2781426347857
 51
191.4823244354479
  0
ARC
  5
1C8
330
1F
100
AcDbEntity
  8
Layer1
 62
     7
370
    25
100
AcDbCircle
 10
34.06078560753956
 20
-34.64706297023341
 30
0.0
 40
16.55104482452895
100
AcDbArc
 50
123.2781426347859
 51
191.4823244354482
  0
LINE
  5
1C9
330
1F
100
AcDbEntity
  8
Layer1
 62
     7
370
    25
100
AcDbLine
 10
96.3495216360307
 20
-8.175863177725049
 30
0.0
 11
88.76002163603074
 21
-8.172548186303871
 31
0.0
  0
LINE
  5
1CA
330
1F
100
AcDbEntity
  8
Layer1
 62
     7
370
    25
100
AcDbLine
 10
72.08102163603077
 20
-9.675863177725049
 30
0.0
 11
104.8140216360308
 21
-9.675863177725049
 31
0.0
  0
LINE
  5
1CB
330
1F
100
AcDbEntity
  8
Layer1
 62
     7
370
    25
100
AcDbLine
 10
88.76002163603074
 20
-8.172548186303871
 30
0.0
 11
88.76002163603074
 21
-7.547548186303871
 31
0.0
  0
LINE
  5
1CC
330
1F
100
AcDbEntity
  8
Layer1
 62
     7
370
    25
100
AcDbLine
 10
88.76002163603074
 20
-7.550863177725049
 30
0.0
 11
88.26002163603086
 21
-7.550863177725049
 31
0.0
  0
LINE
  5
1CD
330
1F
100
AcDbEntity
  8
Layer1
 62
     7
370
    25
100
AcDbLine
 10
72.58102163603077
 20
-8.172548186303871
 30
0.0
 11
79.86924484525225
 21
-8.175863177725049
 31
0.0
  0
LINE
  5
1CE
330
1F
100
AcDbEntity
  8
Layer1
 62
     7
370
    25
100
AcDbLine
 10
104.8140216360308
 20
-8.175863177725049
 30
0.0
 11
96.8495216360307
 21
-8.172548186303871
 31
0.0
  0
LINE
  5
1CF
330
1F
100
AcDbEntity
  8
Layer1
 62
     7
370
    25
100
AcDbLine
 10
72.58102163603077
 20
-7.550863177725049
 30
0.0
 11
72.08102163603088
 21
-7.550863177725049
 31
0.0
  0
CIRCLE
  5
1D0
330
1F
100
AcDbEntity
  8
Layer1
 62
     7
370
    25
100
AcDbCircle
 10
-72.33102163603077
 20
-7.800863177725049
 30
0.0
 40
0.0939999999999941
210
0.0
220
0.0
230
-1.0
  0
LINE
  5
1D1
330
1F
100
AcDbEntity
  8
Layer1
 62
     7
370
    25
100
AcDbLine
 10
72.58102163603077
 20
-8.172548186303871
 30
0.0
 11
72.58102163603077
 21
-7.547548186303871
 31
0.0
  0
LINE
  5
1D2
330
1F
100
AcDbEntity
  8
Layer1
 62
     7
370
    25
100
AcDbLine
 10
72.08102163603088
 20
-7.550863177725049
 30
0.0
 11
72.08102163603077
 21
-9.675863177725049
 31
0.0
  0
LINE
  5
1D3
330
1F
100
AcDbEntity
  8
Layer1
 62
     7
370
    25
100
AcDbLine
 10
79.86924484525225
 20
-7.550863177725049
 30
0.0
 11
79.86924484525225
 21
-8.175863177725049
 31
0.0
  0
LINE
  5
1D4
330
1F
100
AcDbEntity
  8
Layer1
 62
     7
370
    25
100
AcDbLine
 10
80.36924484525225
 20
-7.550863177725049
 30
0.0
 11
79.86924484525225
 21
-7.550863177725049
 31
0.0
  0
CIRCLE
  5
1D5
330
1F
100
AcDbEntity
  8
Layer1
 62
     7
370
    25
100
AcDbCircle
 10
-80.11924484525225
 20
-7.800863177725049
 30
0.0
 40
0.0939999999999941
210
0.0
220
0.0
230
-1.0
  0
LINE
  5
1D6
330
1F
100
AcDbEntity
  8
Layer1
 62
     7
370
    25
100
AcDbLine
 10
80.36924484525225
 20
-8.172548186303871
 30
0.0
 11
80.36924484525225
 21
-7.547548186303871
 31
0.0
  0
LINE
  5
1D7
330
1F
100
AcDbEntity
  8
Layer1
 62
     7
370
    25
100
AcDbLine
 10
80.36924484525225
 20
-8.172548186303871
 30
0.0
 11
88.26002163603086
 21
-8.175863177725049
 31
0.0
  0
CIRCLE
  5
1D8
330
1F
100
AcDbEntity
  8
Layer1
 62
     7
370
    25
100
AcDbCircle
 10
-88.51002163603086
 20
-7.800863177725049
 30
0.0
 40
0.0939999999999941
210
0.0
220
0.0
230
-1.0
  0
LINE
  5
1D9
330
1F
100
AcDbEntity
  8
Layer1
 62
     7
370
    25
100
AcDbLine
 10
88.26002163603086
 20
-7.550863177725049
 30
0.0
 11
88.26002163603086
 21
-8.175863177725049
 31
0.0
  0
LINE
  5
1DA
330
1F
100
AcDbEntity
  8
Layer1
 62
     7
370
    25
100
AcDbLine
 10
96.3495216360307
 20
-7.550863177725049
 30
0.0
 11
96.3495216360307
 21
-8.175863177725049
 31
0.0
  0
LINE
  5
1DB
330
1F
100
AcDbEntity
  8
Layer1
 62
     7
370
    25
100
AcDbLine
 10
96.8495216360307
 20
-7.550863177725049
 30
0.0
 11
96.3495216360307
 21
-7.550863177725049
 31
0.0
  0
CIRCLE
  5
1DC
330
1F
100
AcDbEntity
  8
Layer1
 62
     7
370
    25
100
AcDbCircle
 10
-96.5995216360307
 20
-7.800863177725049
 30
0.0
 40
0.0939999999999941
210
0.0
220
0.0
230
-1.0
  0
LINE
  5
1DD
330
1F
100
AcDbEntity
  8
Layer1
 62
     7
370
    25
100
AcDbLine
 10
96.8495216360307
 20
-8.172548186303871
 30
0.0
 11
96.8495216360307
 21
-7.547548186303871
 31
0.0
  0
LINE
  5
1DE
330
1F
100
AcDbEntity
  8
Layer1
 62
     7
370
    25
100
AcDbLine
 10
104.8140216360308
 20
-9.675863177725049
 30
0.0
 11
104.8140216360308
 21
-8.175863177725049
 31
0.0
  0
MTEXT
  5
1DF
330
1F
100
AcDbEntity
  8
Layer1
 62
     7
370
    25
100
AcDbMText
 10
83.30005988642581
 20
-1.696013676105909
 30
0.0
 40
1.333333373069763
 41
11.86383058663575
 71
     1
 72
     1
  1
{\C7;\l\fPlotter|b0|i0|c00|p34;SM2012-b\P}
 73
     1
 44
1.0
  0
MTEXT
  5
1E0
330
1F
100
AcDbEntity
  8
Layer1
 62
     7
370
    25
100
AcDbMText
 10
29.57171227289718
 20
-3.062348698871521
 30
0.0
 40
1.333333373069763
 41
9.205395548271637
 71
     1
 72
     1
  1
{\C7;\l\fPlotter|b0|i0|c00|p34;SM2010\P}
 73
     1
 44
1.0
  0
LINE
  5
1E1
330
1F
100
AcDbEntity
  8
Layer1
 62
     7
370
    25
100
AcDbLine
 10
106.2910520343637
 20
-0.4583070012501977
 30
0.0
 11
91.11633988184167
 21
-0.4583070012501977
 31
0.0
  0
LINE
  5
1E2
330
1F
100
AcDbEntity
  8
Layer1
 62
     7
370
    25
100
AcDbLine
 10
86.53376418688583
 20
-0.4583070012501977
 30
0.0
 11
71.35905203436374
 21
-0.4583070012501977
 31
0.0
  0
MTEXT
  5
1E3
330
1F
100
AcDbEntity
  8
Layer1
 62
     7
370
    25
100
AcDbMText
 10
37.27699635525299
 20
94.79055145410075
 30
0.0
 40
2.0
 41
51.22341671426685
 71
     1
 72
     1
  1
{\C7;\l\fPlotter|b0|i0|c00|p34;\H1.00x;VESSEL TUBES & CONES\P\l\fPlotter|b1|i0|c00|p34;\H0.78x;16awg mild steel and SS parts\P\l\fPlotter|b0|i0|c00|p34;\H0.11x;\P\P}
 73
     1
 44
1.0
  0
LINE
  5
1E4
330
1F
100
AcDbEntity
  8
Layer1
 62
     7
370
    25
100
AcDbLine
 10
108.1283890186518
 20
72.96188987596935
 30
0.0
 11
108.1283890186518
 21
70.28204420552512
 31
0.0
  0
LINE
  5
1E5
330
1F
100
AcDbEntity
  8
Layer1
 62
     7
370
    25
100
AcDbLine
 10
103.5668890186519
 20
72.96188987596935
 30
0.0
 11
103.5668890186519
 21
73.08688987596935
 31
0.0
  0
LINE
  5
1E6
330
1F
100
AcDbEntity
  8
Layer1
 62
     7
370
    25
100
AcDbLine
 10
110.5713890186518
 20
69.9118898759694
 30
0.0
 11
108.1283890186518
 21
70.28204420552512
 31
0.0
  0
LINE
  5
1E7
330
1F
100
AcDbEntity
  8
Layer1
 62
     7
370
    25
100
AcDbLine
 10
107.7555556853185
 20
73.08688987596935
 30
0.0
 11
110.9442223519852
 21
73.08688987596935
 31
0.0
  0
LINE
  5
1E8
330
1F
100
AcDbEntity
  8
Layer1
 62
     7
370
    25
100
AcDbLine
 10
110.5713890186518
 20
72.96188987596935
 30
0.0
 11
110.5713890186518
 21
69.9118898759694
 31
0.0
  0
LINE
  5
1E9
330
1F
100
AcDbEntity
  8
Layer1
 62
     7
370
    25
100
AcDbLine
 10
111.9442223519852
 20
73.08688987596935
 30
0.0
 11
115.1328890186519
 21
73.08688987596935
 31
0.0
  0
LINE
  5
1EA
330
1F
100
AcDbEntity
  8
Layer1
 62
     7
370
    25
100
AcDbLine
 10
115.1328890186519
 20
72.96188987596935
 30
0.0
 11
115.1328890186519
 21
73.08688987596935
 31
0.0
  0
LINE
  5
1EB
330
1F
100
AcDbEntity
  8
Layer1
 62
     7
370
    25
100
AcDbLine
 10
102.9417090186519
 20
57.21188987596936
 30
0.0
 11
102.9417090186519
 21
72.96188987596935
 31
0.0
  0
LINE
  5
1EC
330
1F
100
AcDbEntity
  8
Layer1
 62
     7
370
    25
100
AcDbLine
 10
115.7580690186519
 20
72.96188987596935
 30
0.0
 11
115.7580690186519
 21
57.21188987596936
 31
0.0
  0
LINE
  5
1ED
330
1F
100
AcDbEntity
  8
Layer1
 62
     7
370
    25
100
AcDbLine
 10
110.9442223519852
 20
57.21188987596936
 30
0.0
 11
111.9442223519852
 21
57.21188987596936
 31
0.0
  0
LINE
  5
1EE
330
1F
100
AcDbEntity
  8
Layer1
 62
     7
370
    25
100
AcDbLine
 10
115.1328890186519
 20
57.21188987596936
 30
0.0
 11
115.7580690186519
 21
57.21188987596936
 31
0.0
  0
LINE
  5
1EF
330
1F
100
AcDbEntity
  8
Layer1
 62
     7
370
    25
100
AcDbLine
 10
110.9442223519852
 20
57.21188987596936
 30
0.0
 11
110.9442223519852
 21
57.08688987596936
 31
0.0
  0
LINE
  5
1F0
330
1F
100
AcDbEntity
  8
Layer1
 62
     7
370
    25
100
AcDbLine
 10
103.5668890186519
 20
57.21188987596936
 30
0.0
 11
103.5668890186519
 21
57.08688987596936
 31
0.0
  0
LINE
  5
1F1
330
1F
100
AcDbEntity
  8
Layer1
 62
     7
370
    25
100
AcDbLine
 10
107.7555556853185
 20
57.21188987596936
 30
0.0
 11
107.7555556853185
 21
57.08688987596936
 31
0.0
  0
LINE
  5
1F2
330
1F
100
AcDbEntity
  8
Layer1
 62
     7
370
    25
100
AcDbLine
 10
111.9442223519852
 20
57.08688987596936
 30
0.0
 11
115.1328890186519
 21
57.08688987596936
 31
0.0
  0
LINE
  5
1F3
330
1F
100
AcDbEntity
  8
Layer1
 62
     7
370
    25
100
AcDbLine
 10
115.1328890186519
 20
57.21188987596936
 30
0.0
 11
115.1328890186519
 21
57.08688987596936
 31
0.0
  0
LINE
  5
1F4
330
1F
100
AcDbEntity
  8
Layer1
 62
     7
370
    25
100
AcDbLine
 10
111.9442223519852
 20
57.21188987596936
 30
0.0
 11
111.9442223519852
 21
57.08688987596936
 31
0.0
  0
LINE
  5
1F5
330
1F
100
AcDbEntity
  8
Layer1
 62
     7
370
    25
100
AcDbLine
 10
102.9417090186519
 20
57.21188987596936
 30
0.0
 11
103.5668890186519
 21
57.21188987596936
 31
0.0
  0
LINE
  5
1F6
330
1F
100
AcDbEntity
  8
Layer1
 62
     7
370
    25
100
AcDbLine
 10
107.7555556853185
 20
57.08688987596936
 30
0.0
 11
110.9442223519852
 21
57.08688987596936
 31
0.0
  0
LINE
  5
1F7
330
1F
100
AcDbEntity
  8
Layer1
 62
     7
370
    25
100
AcDbLine
 10
103.5668890186519
 20
57.08688987596936
 30
0.0
 11
106.7555556853185
 21
57.08688987596936
 31
0.0
  0
LINE
  5
1F8
330
1F
100
AcDbEntity
  8
Layer1
 62
     7
370
    25
100
AcDbLine
 10
106.7555556853185
 20
57.21188987596936
 30
0.0
 11
107.7555556853185
 21
57.21188987596936
 31
0.0
  0
LINE
  5
1F9
330
1F
100
AcDbEntity
  8
Layer1
 62
     7
370
    25
100
AcDbLine
 10
106.7555556853185
 20
57.21188987596936
 30
0.0
 11
106.7555556853185
 21
57.08688987596936
 31
0.0
  0
LINE
  5
1FA
330
1F
100
AcDbEntity
  8
Layer1
 62
     7
370
    25
100
AcDbLine
 10
110.9442223519852
 20
72.96188987596935
 30
0.0
 11
110.9442223519852
 21
73.08688987596935
 31
0.0
  0
LINE
  5
1FB
330
1F
100
AcDbEntity
  8
Layer1
 62
     7
370
    25
100
AcDbLine
 10
108.1283890186518
 20
72.96188987596935
 30
0.0
 11
110.5713890186518
 21
72.96188987596935
 31
0.0
  0
LINE
  5
1FC
330
1F
100
AcDbEntity
  8
Layer1
 62
     7
370
    25
100
AcDbLine
 10
115.1328890186519
 20
72.96188987596935
 30
0.0
 11
115.7580690186519
 21
72.96188987596935
 31
0.0
  0
LINE
  5
1FD
330
1F
100
AcDbEntity
  8
Layer1
 62
     7
370
    25
100
AcDbLine
 10
111.9442223519852
 20
72.96188987596935
 30
0.0
 11
111.9442223519852
 21
73.08688987596935
 31
0.0
  0
LINE
  5
1FE
330
1F
100
AcDbEntity
  8
Layer1
 62
     7
370
    25
100
AcDbLine
 10
110.9442223519852
 20
72.96188987596935
 30
0.0
 11
111.9442223519852
 21
72.96188987596935
 31
0.0
  0
LINE
  5
1FF
330
1F
100
AcDbEntity
  8
Layer1
 62
     7
370
    25
100
AcDbLine
 10
102.9417090186519
 20
72.96188987596935
 30
0.0
 11
103.5668890186519
 21
72.96188987596935
 31
0.0
  0
LINE
  5
200
330
1F
100
AcDbEntity
  8
Layer1
 62
     7
370
    25
100
AcDbLine
 10
106.7555556853185
 20
72.96188987596935
 30
0.0
 11
107.7555556853185
 21
72.96188987596935
 31
0.0
  0
LINE
  5
201
330
1F
100
AcDbEntity
  8
Layer1
 62
     7
370
    25
100
AcDbLine
 10
103.5668890186519
 20
73.08688987596935
 30
0.0
 11
106.7555556853185
 21
73.08688987596935
 31
0.0
  0
LINE
  5
202
330
1F
100
AcDbEntity
  8
Layer1
 62
     7
370
    25
100
AcDbLine
 10
107.7555556853185
 20
72.96188987596935
 30
0.0
 11
107.7555556853185
 21
73.08688987596935
 31
0.0
  0
LINE
  5
203
330
1F
100
AcDbEntity
  8
Layer1
 62
     7
370
    25
100
AcDbLine
 10
106.7555556853185
 20
72.96188987596935
 30
0.0
 11
106.7555556853185
 21
73.08688987596935
 31
0.0
  0
MTEXT
  5
204
330
1F
100
AcDbEntity
  8
Layer1
 62
     7
370
    25
100
AcDbMText
 10
85.50617043309299
 20
20.34366715491944
 30
0.0
 40
1.333333373069763
 41
9.205395548271637
 71
     1
 72
     1
  1
{\C7;\l\fPlotter|b0|i0|c00|p34;\H1.00x;SM2008\P}
 73
     1
 44
1.0
  0
CIRCLE
  5
205
330
1F
100
AcDbEntity
  8
Layer1
 62
     7
370
    25
100
AcDbCircle
 10
40.71279127490212
 20
23.39424061736737
 30
0.0
 40
0.375
  0
LINE
  5
206
330
1F
100
AcDbEntity
  8
Layer1
 62
     7
370
    25
100
AcDbLine
 10
56.34138949106105
 20
40.04176363455787
 30
0.0
 11
56.59138949106116
 21
40.04176363455787
 31
0.0
  0
LINE
  5
207
330
1F
100
AcDbEntity
  8
Layer1
 62
     7
370
    25
100
AcDbLine
 10
56.59138949106116
 20
40.09176363455785
 30
0.0
 11
56.34138949106105
 21
40.09176363455785
 31
0.0
  0
LINE
  5
208
330
1F
100
AcDbEntity
  8
Layer1
 62
     7
370
    25
100
AcDbLine
 10
56.59138949106116
 20
40.04176363455787
 30
0.0
 11
56.59138949106116
 21
40.09176363455785
 31
0.0
  0
LINE
  5
209
330
1F
100
AcDbEntity
  8
Layer1
 62
     7
370
    25
100
AcDbLine
 10
56.34138949106105
 20
40.09176363455785
 30
0.0
 11
56.34138949106105
 21
40.04176363455787
 31
0.0
  0
LINE
  5
20A
330
1F
100
AcDbEntity
  8
Layer1
 62
     7
370
    25
100
AcDbLine
 10
57.31428615708816
 20
40.04176363455787
 30
0.0
 11
57.56428615708828
 21
40.04176363455787
 31
0.0
  0
LINE
  5
20B
330
1F
100
AcDbEntity
  8
Layer1
 62
     7
370
    25
100
AcDbLine
 10
57.56428615708828
 20
40.09176363455785
 30
0.0
 11
57.31428615708816
 21
40.09176363455785
 31
0.0
  0
LINE
  5
20C
330
1F
100
AcDbEntity
  8
Layer1
 62
     7
370
    25
100
AcDbLine
 10
57.56428615708828
 20
40.04176363455787
 30
0.0
 11
57.56428615708828
 21
40.09176363455785
 31
0.0
  0
LINE
  5
20D
330
1F
100
AcDbEntity
  8
Layer1
 62
     7
370
    25
100
AcDbLine
 10
57.31428615708816
 20
40.09176363455785
 30
0.0
 11
57.31428615708816
 21
40.04176363455787
 31
0.0
  0
LINE
  5
20E
330
1F
100
AcDbEntity
  8
Layer1
 62
     7
370
    25
100
AcDbLine
 10
56.34138949106094
 20
29.14176363455789
 30
0.0
 11
56.59138949106105
 21
29.14176363455789
 31
0.0
  0
LINE
  5
20F
330
1F
100
AcDbEntity
  8
Layer1
 62
     7
370
    25
100
AcDbLine
 10
56.59138949106105
 20
29.19176363455789
 30
0.0
 11
56.34138949106094
 21
29.19176363455789
 31
0.0
  0
LINE
  5
210
330
1F
100
AcDbEntity
  8
Layer1
 62
     7
370
    25
100
AcDbLine
 10
56.59138949106105
 20
29.14176363455789
 30
0.0
 11
56.59138949106105
 21
29.19176363455789
 31
0.0
  0
LINE
  5
211
330
1F
100
AcDbEntity
  8
Layer1
 62
     7
370
    25
100
AcDbLine
 10
56.34138949106094
 20
29.19176363455789
 30
0.0
 11
56.34138949106094
 21
29.14176363455789
 31
0.0
  0
LINE
  5
212
330
1F
100
AcDbEntity
  8
Layer1
 62
     7
370
    25
100
AcDbLine
 10
57.31428615708793
 20
29.14176363455778
 30
0.0
 11
57.56428615708805
 21
29.14176363455778
 31
0.0
  0
LINE
  5
213
330
1F
100
AcDbEntity
  8
Layer1
 62
     7
370
    25
100
AcDbLine
 10
57.56428615708805
 20
29.19176363455777
 30
0.0
 11
57.31428615708793
 21
29.19176363455777
 31
0.0
  0
LINE
  5
214
330
1F
100
AcDbEntity
  8
Layer1
 62
     7
370
    25
100
AcDbLine
 10
57.56428615708805
 20
29.14176363455778
 30
0.0
 11
57.56428615708805
 21
29.19176363455777
 31
0.0
  0
LINE
  5
215
330
1F
100
AcDbEntity
  8
Layer1
 62
     7
370
    25
100
AcDbLine
 10
57.31428615708793
 20
29.19176363455777
 30
0.0
 11
57.31428615708793
 21
29.14176363455778
 31
0.0
  0
LINE
  5
216
330
1F
100
AcDbEntity
  8
Layer1
 62
     7
370
    25
100
AcDbLine
 10
57.31428615708793
 20
33.09176363455791
 30
0.0
 11
57.56428615708805
 21
33.09176363455791
 31
0.0
  0
LINE
  5
217
330
1F
100
AcDbEntity
  8
Layer1
 62
     7
370
    25
100
AcDbLine
 10
57.56428615708805
 20
33.14176363455789
 30
0.0
 11
57.31428615708793
 21
33.14176363455789
 31
0.0
  0
LINE
  5
218
330
1F
100
AcDbEntity
  8
Layer1
 62
     7
370
    25
100
AcDbLine
 10
57.56428615708805
 20
33.09176363455791
 30
0.0
 11
57.56428615708805
 21
33.14176363455789
 31
0.0
  0
LINE
  5
219
330
1F
100
AcDbEntity
  8
Layer1
 62
     7
370
    25
100
AcDbLine
 10
57.31428615708793
 20
33.14176363455789
 30
0.0
 11
57.31428615708793
 21
33.09176363455791
 31
0.0
  0
LINE
  5
21A
330
1F
100
AcDbEntity
  8
Layer1
 62
     7
370
    25
100
AcDbLine
 10
56.34138949106094
 20
33.09176363455796
 30
0.0
 11
56.59138949106105
 21
33.09176363455796
 31
0.0
  0
LINE
  5
21B
330
1F
100
AcDbEntity
  8
Layer1
 62
     7
370
    25
100
AcDbLine
 10
56.59138949106105
 20
33.14176363455795
 30
0.0
 11
56.34138949106094
 21
33.14176363455795
 31
0.0
  0
LINE
  5
21C
330
1F
100
AcDbEntity
  8
Layer1
 62
     7
370
    25
100
AcDbLine
 10
56.59138949106105
 20
33.09176363455796
 30
0.0
 11
56.59138949106105
 21
33.14176363455795
 31
0.0
  0
LINE
  5
21D
330
1F
100
AcDbEntity
  8
Layer1
 62
     7
370
    25
100
AcDbLine
 10
56.34138949106094
 20
33.14176363455795
 30
0.0
 11
56.34138949106094
 21
33.09176363455796
 31
0.0
  0
LINE
  5
21E
330
1F
100
AcDbEntity
  8
Layer1
 62
     7
370
     9
100
AcDbLine
 10
57.70973387991657
 20
29.71530255764516
 30
0.0
 11
57.70973387991657
 21
29.71530255764516
 31
0.0
  0
ARC
  5
21F
330
1F
100
AcDbEntity
  8
Layer1
 62
     7
370
    25
100
AcDbCircle
 10
49.77148083411046
 20
-68.27974011672381
 30
0.0
 40
4.949747468305822
100
AcDbArc
 50
319.804894323502
 51
217.3000000000002
  0
LINE
  5
220
330
1F
100
AcDbEntity
  8
Layer1
 62
     7
370
    25
100
AcDbLine
 10
51.29567840661238
 20
-69.7551457422991
 30
0.0
 11
53.55235119023907
 21
-71.47426971435596
 31
0.0
  0
ARC
  5
221
330
1F
100
AcDbEntity
  8
Layer1
 62
     7
370
    25
100
AcDbCircle
 10
49.77148083411046
 20
-68.27974011672381
 30
0.0
 40
2.121320343559638
100
AcDbArc
 50
315.9318986313107
 51
217.2999999999988
  0
LINE
  5
222
330
1F
100
AcDbEntity
  8
Layer1
 62
     7
370
    25
100
AcDbLine
 10
48.08402675641071
 20
-69.56523563816864
 30
0.0
 11
45.83408798614445
 21
-71.27922966676175
 31
0.0
  0
MTEXT
  5
223
330
1F
100
AcDbEntity
  8
Layer1
 62
     7
370
    25
100
AcDbMText
 10
45.3879591444573
 20
-73.93088618929885
 30
0.0
 40
1.333333373069763
 41
9.205395548271637
 71
     1
 72
     1
  1
{\C7;\l\fPlotter|b0|i0|c00|p34;SM2017\P}
 73
     1
 44
1.0
  0
LINE
  5
224
330
1F
100
AcDbEntity
  8
Layer1
 62
     7
370
    25
100
AcDbLine
 10
79.9686364257116
 20
-65.89809584152673
 30
0.0
 11
74.24502115434888
 21
-63.00688972548099
 31
0.0
  0
ARC
  5
225
330
1F
100
AcDbEntity
  8
Layer1
 62
     7
370
    25
100
AcDbCircle
 10
70.32570841027243
 20
-61.30718751211529
 30
0.0
 40
4.27200187265877
100
AcDbArc
 50
206.8000000000001
 51
336.5548986396775
  0
MTEXT
  5
226
330
1F
100
AcDbEntity
  8
Layer1
 62
     7
370
    25
100
AcDbMText
 10
47.6328150470494
 20
-58.73722264854713
 30
0.0
 40
1.555555582046509
 41
26.33230094664211
 71
     1
 72
     1
  1
{\C7;\l\fPlotter|b1|i0|c00|p34;\H1.00x;16awg 304SS\P}
 73
     1
 44
1.0
  0
LINE
  5
227
330
1F
100
AcDbEntity
  8
Layer1
 62
     7
370
    25
100
AcDbLine
 10
66.51258012233629
 20
-63.23333721028033
 30
0.0
 11
60.79288769043211
 21
-66.12256175752785
 31
0.0
  0
ARC
  5
228
330
1F
100
AcDbEntity
  8
Layer1
 62
     7
370
    25
100
AcDbCircle
 10
70.32570841027243
 20
-61.30718751211529
 30
0.0
 40
10.68000468164688
100
AcDbArc
 50
206.8
 51
334.5413152663094
  0
LINE
  5
229
330
1F
100
AcDbEntity
  8
Layer1
 62
     7
370
    25
100
AcDbLine
 10
8.385796217354624
 20
-51.65523523961197
 30
0.0
 11
111.4133560341918
 21
-51.65523523961197
 31
0.0
  0
MTEXT
  5
22A
330
1F
100
AcDbEntity
  8
Layer1
 62
     7
370
    25
100
AcDbMText
 10
84.18942194664194
 20
-11.18950385708445
 30
0.0
 40
1.333333373069763
 41
9.205395548271637
 71
     1
 72
     1
  1
{\C7;\l\fPlotter|b0|i0|c00|p34;\H1.00x;SM2013\P}
 73
     1
 44
1.0
  0
LINE
  5
22B
330
1F
100
AcDbEntity
  8
Layer1
 62
     7
370
    25
100
AcDbLine
 10
103.1384614592172
 20
-18.8797970188994
 30
0.0
 11
72.91846145921718
 21
-18.8797970188994
 31
0.0
  0
LINE
  5
22C
330
1F
100
AcDbEntity
  8
Layer1
 62
     7
370
    25
100
AcDbLine
 10
72.91846145921718
 20
-17.3797970188994
 30
0.0
 11
103.1384614592172
 21
-17.3797970188994
 31
0.0
  0
MTEXT
  5
22D
330
1F
100
AcDbEntity
  8
Layer1
 62
     7
370
    25
100
AcDbMText
 10
30.09084784003983
 20
-32.78798365441208
 30
0.0
 40
1.333333373069763
 41
9.205395548271637
 71
     1
 72
     1
  1
{\C7;\l\fPlotter|b0|i0|c00|p34;SM2011\P}
 73
     1
 44
1.0
  0
MTEXT
  5
22E
330
1F
100
AcDbEntity
  8
Layer1
 62
     7
370
    25
100
AcDbMText
 10
82.93462175774368
 20
-30.75409207611955
 30
0.0
 40
1.333333373069763
 41
11.46979567941398
 71
     1
 72
     1
  1
{\C7;\l\fPlotter|b0|i0|c00|p34;SM2015-b\P}
 73
     1
 44
1.0
  0
MTEXT
  5
22F
330
1F
100
AcDbEntity
  8
Layer1
 62
     7
370
    25
100
AcDbMText
 10
82.30452441483051
 20
-20.20384003589243
 30
0.0
 40
1.333333373069763
 41
11.94343855019773
 71
     1
 72
     1
  1
{\C7;\l\fPlotter|b0|i0|c00|p34;SM2014-b\P}
 73
     1
 44
1.0
  0
MTEXT
  5
230
330
1F
100
AcDbEntity
  8
Layer1
 62
     7
370
    25
100
AcDbMText
 10
83.09785655212268
 20
-41.59154326269941
 30
0.0
 40
1.333333373069763
 41
12.19817268917863
 71
     1
 72
     1
  1
{\C7;\l\fPlotter|b0|i0|c00|p34;SM2016-b\P}
 73
     1
 44
1.0
  0
LINE
  5
231
330
1F
100
AcDbEntity
  8
Layer1
 62
     7
370
    25
100
AcDbLine
 10
88.39405849753503
 20
-27.91883366630156
 30
0.0
 11
93.05405849753502
 21
-27.91883366630156
 31
0.0
  0
LINE
  5
232
330
1F
100
AcDbEntity
  8
Layer1
 62
     7
370
    25
100
AcDbLine
 10
103.1384614592172
 20
-17.3797970188994
 30
0.0
 11
103.1384614592172
 21
-18.8797970188994
 31
0.0
  0
LINE
  5
233
330
1F
100
AcDbEntity
  8
Layer1
 62
     7
370
    25
100
AcDbLine
 10
93.05405849753502
 20
-27.91883366630156
 30
0.0
 11
93.05405849753502
 21
-29.41883366630156
 31
0.0
  0
LINE
  5
234
330
1F
100
AcDbEntity
  8
Layer1
 62
     7
370
    25
100
AcDbLine
 10
88.31405849753502
 20
-28.71883366630157
 30
0.0
 11
88.31405849753502
 21
-27.91883366630156
 31
0.0
  0
LINE
  5
235
330
1F
100
AcDbEntity
  8
Layer1
 62
     7
370
    25
100
AcDbLine
 10
83.65405849753502
 20
-27.91883366630156
 30
0.0
 11
88.31405849753502
 21
-27.91883366630156
 31
0.0
  0
LINE
  5
236
330
1F
100
AcDbEntity
  8
Layer1
 62
     7
370
    25
100
AcDbLine
 10
83.65405849753502
 20
-29.41883366630156
 30
0.0
 11
93.05405849753502
 21
-29.41883366630156
 31
0.0
  0
LINE
  5
237
330
1F
100
AcDbEntity
  8
Layer1
 62
     7
370
    25
100
AcDbLine
 10
88.39405849753503
 20
-27.91883366630156
 30
0.0
 11
88.39405849753503
 21
-28.71883366630157
 31
0.0
  0
LINE
  5
238
330
1F
100
AcDbEntity
  8
Layer1
 62
     7
370
    25
100
AcDbLine
 10
88.39405849753503
 20
-28.71883366630157
 30
0.0
 11
88.31405849753502
 21
-28.71883366630157
 31
0.0
  0
LINE
  5
239
330
1F
100
AcDbEntity
  8
Layer1
 62
     7
370
    25
100
AcDbLine
 10
83.65405849753502
 20
-29.41883366630156
 30
0.0
 11
83.65405849753502
 21
-27.91883366630156
 31
0.0
  0
LINE
  5
23A
330
1F
100
AcDbEntity
  8
Layer1
 62
     7
370
    25
100
AcDbLine
 10
72.91846145921718
 20
-18.8797970188994
 30
0.0
 11
72.91846145921718
 21
-17.3797970188994
 31
0.0
  0
LINE
  5
23B
330
1F
100
AcDbEntity
  8
Layer1
 62
     7
370
    25
100
AcDbLine
 10
52.69486782858865
 20
-102.4933979417695
 30
0.0
 11
44.60111782858865
 21
-102.4933979417695
 31
0.0
  0
MTEXT
  5
23C
330
1F
100
AcDbEntity
  8
Layer1
 62
     7
370
    25
100
AcDbMText
 10
30.25309598290224
 20
-117.0281863972039
 30
0.0
 40
1.333333373069763
 41
11.57188390379603
 71
     1
 72
     1
  1
{\C7;\l\fPlotter|b0|i0|c00|p34;SM2019-b\P}
 73
     1
 44
1.0
  0
MTEXT
  5
23D
330
1F
100
AcDbEntity
  8
Layer1
 62
     7
370
    25
100
AcDbMText
 10
79.54682850681826
 20
-117.5832156305006
 30
0.0
 40
1.333333373069763
 41
9.205395548271637
 71
     1
 72
     1
  1
{\C7;\l\fPlotter|b0|i0|c00|p34;SM2020\P}
 73
     1
 44
1.0
  0
LINE
  5
23E
330
1F
100
AcDbEntity
  8
Layer1
 62
     7
370
    25
100
AcDbLine
 10
83.15422404191234
 20
-126.6240765576083
 30
0.0
 11
84.55422404191238
 21
-126.6240765576083
 31
0.0
  0
MTEXT
  5
23F
330
1F
100
AcDbEntity
  8
Layer1
 62
     7
370
    25
100
AcDbMText
 10
77.1056325770526
 20
-136.4113729794711
 30
0.0
 40
1.333333373069763
 41
9.205395548271637
 71
     1
 72
     1
  1
{\C7;\l\fPlotter|b0|i0|c00|p34;SM2022\P}
 73
     1
 44
1.0
  0
MTEXT
  5
240
330
1F
100
AcDbEntity
  8
Layer1
 62
     7
370
    25
100
AcDbMText
 10
42.71690376770453
 20
-136.8713221549879
 30
0.0
 40
1.333333373069763
 41
9.205395548271637
 71
     1
 72
     1
  1
{\C7;\l\fPlotter|b0|i0|c00|p34;SM2021\P}
 73
     1
 44
1.0
  0
LINE
  5
241
330
1F
100
AcDbEntity
  8
Layer1
 62
     7
370
    25
100
AcDbLine
 10
11.51745516199071
 20
-82.966497960049
 30
0.0
 11
114.5450149788279
 21
-82.966497960049
 31
0.0
  0
LINE
  5
242
330
1F
100
AcDbEntity
  8
Layer1
 62
     7
370
    25
100
AcDbLine
 10
79.4542240416669
 20
-128.9740765576083
 30
0.0
 11
79.4542240419123
 21
-126.6240765576083
 31
0.0
  0
LINE
  5
243
330
1F
100
AcDbEntity
  8
Layer1
 62
     7
370
    25
100
AcDbLine
 10
83.15422404166695
 20
-133.7240765576083
 30
0.0
 11
82.4292240424031
 21
-133.7240765576083
 31
0.0
  0
LINE
  5
244
330
1F
100
AcDbEntity
  8
Layer1
 62
     7
370
    25
100
AcDbLine
 10
80.17922404240316
 20
-133.7240765576083
 30
0.0
 11
79.4542240416669
 21
-133.7240765576083
 31
0.0
  0
LINE
  5
245
330
1F
100
AcDbEntity
  8
Layer1
 62
     7
370
    25
100
AcDbLine
 10
79.4542240416669
 20
-133.7240765576083
 30
0.0
 11
79.4542240416669
 21
-129.9740765576083
 31
0.0
  0
LINE
  5
246
330
1F
100
AcDbEntity
  8
Layer1
 62
     7
370
    25
100
AcDbLine
 10
80.17922404240316
 20
-131.3490765576083
 30
0.0
 11
80.17922404240316
 21
-133.7240765576083
 31
0.0
  0
LINE
  5
247
330
1F
100
AcDbEntity
  8
Layer1
 62
     7
370
    25
100
AcDbLine
 10
82.4292240424031
 20
-131.3490765576083
 30
0.0
 11
82.4292240424031
 21
-133.7240765576083
 31
0.0
  0
LINE
  5
248
330
1F
100
AcDbEntity
  8
Layer1
 62
     7
370
    25
100
AcDbLine
 10
79.47422404191234
 20
-132.3240765576083
 30
0.0
 11
79.59922404191234
 21
-132.3240765576083
 31
0.0
  0
LINE
  5
249
330
1F
100
AcDbEntity
  8
Layer1
 62
     7
370
    25
100
AcDbLine
 10
83.13422404191236
 20
-132.3240765576083
 30
0.0
 11
83.0092240419123
 21
-132.3240765576083
 31
0.0
  0
LINE
  5
24A
330
1F
100
AcDbEntity
  8
Layer1
 62
     7
370
    25
100
AcDbLine
 10
83.15422404191234
 20
-126.6240765576083
 30
0.0
 11
83.15422404166695
 21
-128.9740765576083
 31
0.0
  0
LINE
  5
24B
330
1F
100
AcDbEntity
  8
Layer1
 62
     7
370
    25
100
AcDbLine
 10
78.05422404191232
 20
-125.6240765576083
 30
0.0
 11
84.55422404191238
 21
-125.6240765576082
 31
0.0
  0
LINE
  5
24C
330
1F
100
AcDbEntity
  8
Layer1
 62
     7
370
    25
100
AcDbLine
 10
84.55422404191238
 20
-125.6240765576082
 30
0.0
 11
84.55422404191238
 21
-126.6240765576083
 31
0.0
  0
LINE
  5
24D
330
1F
100
AcDbEntity
  8
Layer1
 62
     7
370
    25
100
AcDbLine
 10
79.4542240419123
 20
-126.6240765576083
 30
0.0
 11
78.05422404191232
 21
-126.6240765576083
 31
0.0
  0
LINE
  5
24E
330
1F
100
AcDbEntity
  8
Layer1
 62
     7
370
    25
100
AcDbLine
 10
83.15422404166695
 20
-128.9740765576083
 30
0.0
 11
84.55422404166693
 21
-128.9740765576083
 31
0.0
  0
LINE
  5
24F
330
1F
100
AcDbEntity
  8
Layer1
 62
     7
370
    25
100
AcDbLine
 10
84.55422404166693
 20
-128.9740765576083
 30
0.0
 11
84.55422404166693
 21
-129.9740765576083
 31
0.0
  0
LINE
  5
250
330
1F
100
AcDbEntity
  8
Layer1
 62
     7
370
    25
100
AcDbLine
 10
79.4542240416669
 20
-129.9740765576083
 30
0.0
 11
78.05422404166687
 21
-129.9740765576083
 31
0.0
  0
LINE
  5
251
330
1F
100
AcDbEntity
  8
Layer1
 62
     7
370
    25
100
AcDbLine
 10
78.05422404191232
 20
-125.6240765576083
 30
0.0
 11
78.05422404191232
 21
-126.6240765576083
 31
0.0
  0
LINE
  5
252
330
1F
100
AcDbEntity
  8
Layer1
 62
     7
370
    25
100
AcDbLine
 10
78.05422404166687
 20
-128.9740765576083
 30
0.0
 11
78.05422404166687
 21
-129.9740765576083
 31
0.0
  0
MTEXT
  5
253
330
1F
100
AcDbEntity
  8
Layer1
 62
     7
370
    25
100
AcDbMText
 10
65.98812801478381
 20
-73.5989613170583
 30
0.0
 40
1.333333373069763
 41
9.205395548271637
 71
     1
 72
     1
  1
{\C7;\l\fPlotter|b0|i0|c00|p34;SM2018\P}
 73
     1
 44
1.0
  0
CIRCLE
  5
254
330
1F
100
AcDbEntity
  8
Layer1
 62
     7
370
    25
100
AcDbCircle
 10
-64.51960770413166
 20
64.35331583900215
 30
0.0
 40
0.1875000000000203
  0
CIRCLE
  5
255
330
1F
100
AcDbEntity
  8
Layer1
 62
     7
370
    25
100
AcDbCircle
 10
-64.51887146768985
 20
59.15494311986355
 30
0.0
 40
0.1874999999999755
  0
LINE
  5
256
330
1F
100
AcDbEntity
  8
Layer1
 62
     7
370
    25
100
AcDbLine
 10
-59.68443862916631
 20
33.81002328834852
 30
0.0
 11
-59.68443862916631
 21
25.56002325101595
 31
0.0
  0
MTEXT
  5
257
330
1F
100
AcDbEntity
  8
Layer1
 62
     7
370
    25
100
AcDbMText
 10
-36.47546206889243
 20
20.39602009865528
 30
0.0
 40
1.333333373069763
 41
12.96893491622776
 71
     1
 72
     1
  1
{\C7;\l\fPlotter|b0|i0|c00|p34;SM1011-b\P}
 73
     1
 44
1.0
  0
LINE
  5
258
330
1F
100
AcDbEntity
  8
Layer1
 62
     7
370
    25
100
AcDbLine
 10
-34.76310411737906
 20
25.75598490272645
 30
0.0
 11
-34.40955072678578
 21
25.40243151213318
 31
0.0
  0
LINE
  5
259
330
1F
100
AcDbEntity
  8
Layer1
 62
     7
370
    25
100
AcDbLine
 10
-34.40955072678578
 20
25.40243151213318
 30
0.0
 11
-34.4449060658451
 21
25.36707617307385
 31
0.0
  0
ARC
  5
25A
330
1F
100
AcDbEntity
  8
Layer1
 62
     7
370
    25
100
AcDbCircle
 10
81.30422404240316
 20
-131.3490765576083
 30
0.0
 40
1.125
100
AcDbArc
 50
99.59406772468549
 51
180.0
  0
LINE
  5
25B
330
1F
100
AcDbEntity
  8
Layer1
 62
     7
370
    25
100
AcDbLine
 10
81.61672404191232
 20
-126.5490765576082
 30
0.0
 11
81.61672404240316
 21
-129.8490765576083
 31
0.0
  0
LINE
  5
25C
330
1F
100
AcDbEntity
  8
Layer1
 62
     7
370
    25
100
AcDbLine
 10
80.99172404240316
 20
-129.8490765576083
 30
0.0
 11
80.99172404191232
 21
-126.5490765576082
 31
0.0
  0
LINE
  5
25D
330
1F
100
AcDbEntity
  8
Layer1
 62
     7
370
    25
100
AcDbLine
 10
80.99172404240316
 20
-129.8490765576083
 30
0.0
 11
81.61672404240316
 21
-129.8490765576083
 31
0.0
  0
LINE
  5
25E
330
1F
100
AcDbEntity
  8
Layer1
 62
     7
370
    25
100
AcDbLine
 10
79.4542240416669
 20
-128.9740765576083
 30
0.0
 11
78.05422404166687
 21
-128.9740765576083
 31
0.0
  0
LINE
  5
25F
330
1F
100
AcDbEntity
  8
Layer1
 62
     7
370
    25
100
AcDbLine
 10
83.15422404166695
 20
-129.9740765576083
 30
0.0
 11
84.55422404166693
 21
-129.9740765576083
 31
0.0
  0
LINE
  5
260
330
1F
100
AcDbEntity
  8
Layer1
 62
     7
370
    25
100
AcDbLine
 10
81.11672405212543
 20
-131.6398115966337
 30
0.0
 11
81.11672405212543
 21
-130.2398115966338
 31
0.0
  0
LINE
  5
261
330
1F
100
AcDbEntity
  8
Layer1
 62
     7
370
    25
100
AcDbLine
 10
81.49172405212543
 20
-131.6398115966337
 30
0.0
 11
81.11672405212543
 21
-131.6398115966337
 31
0.0
  0
LINE
  5
262
330
1F
100
AcDbEntity
  8
Layer1
 62
     7
370
    25
100
AcDbLine
 10
81.49172405212543
 20
-130.2398115966338
 30
0.0
 11
81.49172405212543
 21
-131.6398115966337
 31
0.0
  0
LINE
  5
263
330
1F
100
AcDbEntity
  8
Layer1
 62
     7
370
    25
100
AcDbLine
 10
83.15422404166695
 20
-129.9740765576083
 30
0.0
 11
83.15422404166695
 21
-133.7240765576083
 31
0.0
  0
ARC
  5
264
330
1F
100
AcDbEntity
  8
Layer1
 62
     7
370
    25
100
AcDbCircle
 10
81.30422404240316
 20
-131.3490765576083
 30
0.0
 40
1.124999999999943
100
AcDbArc
 50
0.0
 51
80.40593127096493
  0
LINE
  5
265
330
1F
100
AcDbEntity
  8
Layer1
 62
     7
370
    25
100
AcDbLine
 10
80.99172404191232
 20
-126.5490765576082
 30
0.0
 11
81.61672404191232
 21
-126.5490765576082
 31
0.0
  0
LINE
  5
266
330
1F
100
AcDbEntity
  8
Layer1
 62
     7
370
    25
100
AcDbLine
 10
18.69486782858865
 20
-102.4933979417695
 30
0.0
 11
26.78861782858866
 21
-102.4933979417695
 31
0.0
  0
CIRCLE
  5
267
330
1F
100
AcDbEntity
  8
Layer1
 62
     7
370
    25
100
AcDbCircle
 10
53.06986782858865
 20
-96.2453979417695
 30
0.0
 40
0.0649999999999977
  0
CIRCLE
  5
268
330
1F
100
AcDbEntity
  8
Layer1
 62
     7
370
    25
100
AcDbCircle
 10
53.06986782858865
 20
-104.7453979417695
 30
0.0
 40
0.0649999999999977
  0
CIRCLE
  5
269
330
1F
100
AcDbEntity
  8
Layer1
 62
     7
370
    25
100
AcDbCircle
 10
52.94386782858864
 20
-112.4893979417695
 30
0.0
 40
0.0649999999999977
  0
CIRCLE
  5
26A
330
1F
100
AcDbEntity
  8
Layer1
 62
     7
370
    25
100
AcDbCircle
 10
53.00686782858863
 20
-112.7413979417695
 30
0.0
 40
0.0650000000000546
  0
CIRCLE
  5
26B
330
1F
100
AcDbEntity
  8
Layer1
 62
     7
370
    25
100
AcDbCircle
 10
53.06986782858865
 20
-112.9933979417695
 30
0.0
 40
0.0649999999999977
  0
ARC
  5
26C
330
1F
100
AcDbEntity
  8
Layer1
 62
     7
370
    25
100
AcDbCircle
 10
38.02174032858866
 20
-96.11839794176903
 30
0.0
 40
1.000000000000001
100
AcDbArc
 50
179.9999973001307
 51
0.0000024148365395
  0
LINE
  5
26D
330
1F
100
AcDbEntity
  8
Layer1
 62
     7
370
    25
100
AcDbLine
 10
53.19486782858865
 20
-94.99339794176949
 30
0.0
 11
53.19486782858865
 21
-113.9933979417695
 31
0.0
  0
LINE
  5
26E
330
1F
100
AcDbEntity
  8
Layer1
 62
     7
370
    25
100
AcDbLine
 10
18.19486782858865
 20
-113.9933979417695
 30
0.0
 11
18.19486782858865
 21
-94.99339794176949
 31
0.0
  0
LINE
  5
26F
330
1F
100
AcDbEntity
  8
Layer1
 62
     7
370
    25
100
AcDbLine
 10
53.19486782858865
 20
-113.9933979417695
 30
0.0
 11
18.19486782858865
 21
-113.9933979417695
 31
0.0
  0
LINE
  5
270
330
1F
100
AcDbEntity
  8
Layer1
 62
     7
370
    25
100
AcDbLine
 10
39.02174032858866
 20
-96.11839794176903
 30
0.0
 11
39.02174032858866
 21
-94.99339794176949
 31
0.0
  0
LINE
  5
271
330
1F
100
AcDbEntity
  8
Layer1
 62
     7
370
    25
100
AcDbLine
 10
29.02174032858866
 20
-94.99339794176949
 30
0.0
 11
37.02174032858866
 21
-94.99339794176949
 31
0.0
  0
LINE
  5
272
330
1F
100
AcDbEntity
  8
Layer1
 62
     7
370
    25
100
AcDbLine
 10
37.02174032858866
 20
-94.99339794176949
 30
0.0
 11
37.02174032858866
 21
-96.11839789537957
 31
0.0
  0
ARC
  5
273
330
1F
100
AcDbEntity
  8
Layer1
 62
     7
370
    25
100
AcDbCircle
 10
28.02174032858866
 20
-96.11839794176903
 30
0.0
 40
1.000000000000001
100
AcDbArc
 50
179.9999973001307
 51
0.0000024148365395
  0
LINE
  5
274
330
1F
100
AcDbEntity
  8
Layer1
 62
     7
370
    25
100
AcDbLine
 10
29.02174032858866
 20
-96.11839794176903
 30
0.0
 11
29.02174032858866
 21
-94.99339794176949
 31
0.0
  0
LINE
  5
275
330
1F
100
AcDbEntity
  8
Layer1
 62
     7
370
    25
100
AcDbLine
 10
27.02174032858866
 20
-96.11839794176903
 30
0.0
 11
27.02174032858866
 21
-94.99339794176949
 31
0.0
  0
LINE
  5
276
330
1F
100
AcDbEntity
  8
Layer1
 62
     7
370
    25
100
AcDbLine
 10
18.19486782858865
 20
-94.99339794176949
 30
0.0
 11
27.02174032858866
 21
-94.99339794176949
 31
0.0
  0
LINE
  5
277
330
1F
100
AcDbEntity
  8
Layer1
 62
     7
370
    25
100
AcDbLine
 10
39.02174032858866
 20
-96.11839794176903
 30
0.0
 11
39.02174032858866
 21
-96.11839794176903
 31
0.0
  0
CIRCLE
  5
278
330
1F
100
AcDbEntity
  8
Layer1
 62
     7
370
    25
100
AcDbCircle
 10
-18.38286782858867
 20
-95.99339794176949
 30
0.0
 40
0.0649999999999977
210
0.0
220
0.0
230
-1.0
  0
CIRCLE
  5
279
330
1F
100
AcDbEntity
  8
Layer1
 62
     7
370
    25
100
AcDbCircle
 10
-18.44586782858865
 20
-95.74139794176948
 30
0.0
 40
0.0649999999999977
210
0.0
220
0.0
230
-1.0
  0
CIRCLE
  5
27A
330
1F
100
AcDbEntity
  8
Layer1
 62
     7
370
    25
100
AcDbCircle
 10
-18.31986782858865
 20
-96.2453979417695
 30
0.0
 40
0.0649999999999977
210
0.0
220
0.0
230
-1.0
  0
CIRCLE
  5
27B
330
1F
100
AcDbEntity
  8
Layer1
 62
     7
370
    25
100
AcDbCircle
 10
-18.31986782858865
 20
-104.7453979417695
 30
0.0
 40
0.0649999999999977
210
0.0
220
0.0
230
-1.0
  0
CIRCLE
  5
27C
330
1F
100
AcDbEntity
  8
Layer1
 62
     7
370
    25
100
AcDbCircle
 10
-18.38286782858867
 20
-104.4933979417695
 30
0.0
 40
0.0649999999999977
210
0.0
220
0.0
230
-1.0
  0
CIRCLE
  5
27D
330
1F
100
AcDbEntity
  8
Layer1
 62
     7
370
    25
100
AcDbCircle
 10
-18.44586782858865
 20
-104.2413979417695
 30
0.0
 40
0.0649999999999977
210
0.0
220
0.0
230
-1.0
  0
CIRCLE
  5
27E
330
1F
100
AcDbEntity
  8
Layer1
 62
     7
370
    25
100
AcDbCircle
 10
-18.31986782858865
 20
-112.9933979417695
 30
0.0
 40
0.0649999999999409
210
0.0
220
0.0
230
-1.0
  0
CIRCLE
  5
27F
330
1F
100
AcDbEntity
  8
Layer1
 62
     7
370
    25
100
AcDbCircle
 10
-18.44586782858865
 20
-112.4893979417695
 30
0.0
 40
0.0649999999999977
210
0.0
220
0.0
230
-1.0
  0
CIRCLE
  5
280
330
1F
100
AcDbEntity
  8
Layer1
 62
     7
370
    25
100
AcDbCircle
 10
-18.38286782858867
 20
-112.7413979417695
 30
0.0
 40
0.0650000000000546
210
0.0
220
0.0
230
-1.0
  0
LINE
  5
281
330
1F
100
AcDbEntity
  8
Layer1
 62
     7
370
    25
100
AcDbLine
 10
39.02174032858866
 20
-94.99339794176949
 30
0.0
 11
53.19486782858865
 21
-94.99339794176949
 31
0.0
  0
CIRCLE
  5
282
330
1F
100
AcDbEntity
  8
Layer1
 62
     7
370
    25
100
AcDbCircle
 10
53.00686782858863
 20
-104.4933979417695
 30
0.0
 40
0.0649999999999977
  0
CIRCLE
  5
283
330
1F
100
AcDbEntity
  8
Layer1
 62
     7
370
    25
100
AcDbCircle
 10
52.94386782858864
 20
-104.2413979417695
 30
0.0
 40
0.0649999999999977
  0
CIRCLE
  5
284
330
1F
100
AcDbEntity
  8
Layer1
 62
     7
370
    25
100
AcDbCircle
 10
53.00686782858863
 20
-95.99339794176949
 30
0.0
 40
0.0649999999999977
  0
CIRCLE
  5
285
330
1F
100
AcDbEntity
  8
Layer1
 62
     7
370
    25
100
AcDbCircle
 10
52.94386782858864
 20
-95.74139794176948
 30
0.0
 40
0.0649999999999977
  0
CIRCLE
  5
286
330
1F
100
AcDbEntity
  8
Layer1
 62
     7
370
    25
100
AcDbCircle
 10
104.9372075793381
 20
-113.9933979417695
 30
0.0
 40
0.0649999999999977
  0
CIRCLE
  5
287
330
1F
100
AcDbEntity
  8
Layer1
 62
     7
370
    25
100
AcDbCircle
 10
104.8742075793381
 20
-113.7413979417695
 30
0.0
 40
0.0649999999999977
  0
CIRCLE
  5
288
330
1F
100
AcDbEntity
  8
Layer1
 62
     7
370
    25
100
AcDbCircle
 10
104.8112075793381
 20
-113.4893979417695
 30
0.0
 40
0.0649999999999977
  0
LINE
  5
289
330
1F
100
AcDbEntity
  8
Layer1
 62
     7
370
    25
100
AcDbLine
 10
105.0622075793381
 20
-114.9933979417695
 30
0.0
 11
59.52720757933815
 21
-114.9933979417695
 31
0.0
  0
LINE
  5
28A
330
1F
100
AcDbEntity
  8
Layer1
 62
     7
370
    25
100
AcDbLine
 10
68.97384960310724
 20
-107.1183979417695
 30
0.0
 11
73.0738496031072
 21
-107.1183979417695
 31
0.0
  0
LINE
  5
28B
330
1F
100
AcDbEntity
  8
Layer1
 62
     7
370
    25
100
AcDbLine
 10
59.52720757933815
 20
-93.99339794176952
 30
0.0
 11
59.52720757933815
 21
-114.9933979417695
 31
0.0
  0
CIRCLE
  5
28C
330
1F
100
AcDbEntity
  8
Layer1
 62
     7
370
     9
100
AcDbCircle
 10
82.29470757933815
 20
-106.9933979417696
 30
0.0
 40
0.5
  0
LINE
  5
28D
330
1F
100
AcDbEntity
  8
Layer1
 62
     7
370
    25
100
AcDbLine
 10
73.0738496031072
 20
-114.1183979417695
 30
0.0
 11
68.97384960310724
 21
-114.1183979417695
 31
0.0
  0
CIRCLE
  5
28E
330
1F
100
AcDbEntity
  8
Layer1
 62
     7
370
    25
100
AcDbCircle
 10
-59.77820757933812
 20
-113.4893979417695
 30
0.0
 40
0.0649999999999977
210
0.0
220
0.0
230
-1.0
  0
CIRCLE
  5
28F
330
1F
100
AcDbEntity
  8
Layer1
 62
     7
370
    25
100
AcDbCircle
 10
-59.71520757933813
 20
-113.7413979417695
 30
0.0
 40
0.0649999999999977
210
0.0
220
0.0
230
-1.0
  0
CIRCLE
  5
290
330
1F
100
AcDbEntity
  8
Layer1
 62
     7
370
    25
100
AcDbCircle
 10
-59.65220757933815
 20
-113.9933979417695
 30
0.0
 40
0.0649999999999977
210
0.0
220
0.0
230
-1.0
  0
CIRCLE
  5
291
330
1F
100
AcDbEntity
  8
Layer1
 62
     7
370
    25
100
AcDbCircle
 10
-59.65220757933815
 20
-104.7453979417695
 30
0.0
 40
0.0649999999999977
210
0.0
220
0.0
230
-1.0
  0
CIRCLE
  5
292
330
1F
100
AcDbEntity
  8
Layer1
 62
     7
370
    25
100
AcDbCircle
 10
-59.71520757933813
 20
-104.4933979417695
 30
0.0
 40
0.0649999999999977
210
0.0
220
0.0
230
-1.0
  0
CIRCLE
  5
293
330
1F
100
AcDbEntity
  8
Layer1
 62
     7
370
    25
100
AcDbCircle
 10
-59.77820757933812
 20
-104.2413979417695
 30
0.0
 40
0.0649999999999977
210
0.0
220
0.0
230
-1.0
  0
CIRCLE
  5
294
330
1F
100
AcDbEntity
  8
Layer1
 62
     7
370
    25
100
AcDbCircle
 10
-59.77820757933812
 20
-94.7413979417695
 30
0.0
 40
0.0649999999999977
210
0.0
220
0.0
230
-1.0
  0
CIRCLE
  5
295
330
1F
100
AcDbEntity
  8
Layer1
 62
     7
370
    25
100
AcDbCircle
 10
-59.65220757933815
 20
-95.24539794176953
 30
0.0
 40
0.0649999999999977
210
0.0
220
0.0
230
-1.0
  0
CIRCLE
  5
296
330
1F
100
AcDbEntity
  8
Layer1
 62
     7
370
    25
100
AcDbCircle
 10
-59.71520757933813
 20
-94.99339794176952
 30
0.0
 40
0.0649999999999977
210
0.0
220
0.0
230
-1.0
  0
CIRCLE
  5
297
330
1F
100
AcDbEntity
  8
Layer1
 62
     7
370
    25
100
AcDbCircle
 10
71.02384960310722
 20
-99.11839794176952
 30
0.0
 40
1.050000000000011
  0
LINE
  5
298
330
1F
100
AcDbEntity
  8
Layer1
 62
     7
370
    25
100
AcDbLine
 10
73.0738496031072
 20
-107.1183979417695
 30
0.0
 11
73.0738496031072
 21
-114.1183979417695
 31
0.0
  0
LINE
  5
299
330
1F
100
AcDbEntity
  8
Layer1
 62
     7
370
    25
100
AcDbLine
 10
68.97384960310724
 20
-114.1183979417695
 30
0.0
 11
68.97384960310724
 21
-107.1183979417695
 31
0.0
  0
LINE
  5
29A
330
1F
100
AcDbEntity
  8
Layer1
 62
     7
370
    25
100
AcDbLine
 10
59.52720757933815
 20
-93.99339794176952
 30
0.0
 11
105.0622075793381
 21
-93.99339794176952
 31
0.0
  0
LINE
  5
29B
330
1F
100
AcDbEntity
  8
Layer1
 62
     7
370
    25
100
AcDbLine
 10
105.0622075793381
 20
-93.99339794176952
 30
0.0
 11
105.0622075793381
 21
-114.9933979417695
 31
0.0
  0
CIRCLE
  5
29C
330
1F
100
AcDbEntity
  8
Layer1
 62
     7
370
    25
100
AcDbCircle
 10
104.8112075793381
 20
-104.2413979417695
 30
0.0
 40
0.0649999999999977
  0
CIRCLE
  5
29D
330
1F
100
AcDbEntity
  8
Layer1
 62
     7
370
    25
100
AcDbCircle
 10
104.8742075793381
 20
-104.4933979417695
 30
0.0
 40
0.0649999999999977
  0
CIRCLE
  5
29E
330
1F
100
AcDbEntity
  8
Layer1
 62
     7
370
    25
100
AcDbCircle
 10
104.9372075793381
 20
-104.7453979417695
 30
0.0
 40
0.0649999999999977
  0
CIRCLE
  5
29F
330
1F
100
AcDbEntity
  8
Layer1
 62
     7
370
    25
100
AcDbCircle
 10
104.9372075793381
 20
-95.2453979417695
 30
0.0
 40
0.0649999999999977
  0
CIRCLE
  5
2A0
330
1F
100
AcDbEntity
  8
Layer1
 62
     7
370
    25
100
AcDbCircle
 10
104.8112075793381
 20
-94.7413979417695
 30
0.0
 40
0.0649999999999977
  0
CIRCLE
  5
2A1
330
1F
100
AcDbEntity
  8
Layer1
 62
     7
370
    25
100
AcDbCircle
 10
104.8742075793381
 20
-94.99339794176952
 30
0.0
 40
0.0649999999999977
  0
MTEXT
  5
2A2
330
1F
100
AcDbEntity
  8
Layer1
 62
     7
370
    25
100
AcDbMText
 10
47.0272154616685
 20
-88.57248228609369
 30
0.0
 40
1.555555582046509
 41
26.33230094664211
 71
     1
 72
     1
  1
{\C7;\l\fPlotter|b1|i0|c00|p34;\H1.00x;22awg 304SS\P}
 73
     1
 44
1.0
  0
LINE
  5
2A3
330
1F
100
AcDbEntity
  8
Layer1
 62
     7
370
    25
100
AcDbLine
 10
39.93146842396215
 20
-134.9023089639574
 30
0.0
 11
36.99755393292472
 21
-135.5868212421588
 31
0.0
  0
LINE
  5
2A4
330
1F
100
AcDbEntity
  8
Layer1
 62
     7
370
    25
100
AcDbLine
 10
52.95645293402996
 20
-134.8344365302924
 30
0.0
 11
55.93264923197862
 21
-135.3227265637832
 31
0.0
  0
ARC
  5
2A5
330
1F
100
AcDbEntity
  8
Layer1
 62
     7
370
    25
100
AcDbCircle
 10
46.43622925153623
 20
-133.3846816892566
 30
0.0
 40
9.692162317079942
100
AcDbArc
 50
348.4653794589621
 51
193.1327671746715
  0
ARC
  5
2A6
330
1F
100
AcDbEntity
  8
Layer1
 62
     7
370
    25
100
AcDbCircle
 10
46.43622925153623
 20
-133.3846816892566
 30
0.0
 40
6.679454017272594
100
AcDbArc
 50
347.4643573429204
 51
193.1327671746718
  0
LINE
  5
2A7
330
1F
100
AcDbEntity
  8
Layer1
 62
     7
370
    25
100
AcDbLine
 10
27.28861782858866
 20
-102.4933979417695
 30
0.0
 11
35.44486782858865
 21
-102.4933979417695
 31
0.0
  0
LINE
  5
2A8
330
1F
100
AcDbEntity
  8
Layer1
 62
     7
370
    25
100
AcDbLine
 10
35.94486782858865
 20
-102.4933979417695
 30
0.0
 11
44.10111782858865
 21
-102.4933979417695
 31
0.0
  0
ARC
  5
2A9
330
1F
100
AcDbEntity
  8
Layer1
 62
     7
370
    25
100
AcDbCircle
 10
-30.70127968789781
 20
29.46439201073483
 30
0.0
 40
5.550000000000012
100
AcDbArc
 50
227.5827588578158
 51
312.4192297322986
  0
LINE
  5
2AA
330
1F
100
AcDbEntity
  8
Layer1
 62
     7
370
    25
100
AcDbLine
 10
-26.95751724083012
 20
25.36721224219428
 30
0.0
 11
-26.99287257988944
 21
25.40256758125361
 31
0.0
  0
LINE
  5
2AB
330
1F
100
AcDbEntity
  8
Layer1
 62
     7
370
    25
100
AcDbLine
 10
-26.99287257988944
 20
25.40256758125361
 30
0.0
 11
-26.63931918929616
 21
25.75612097184688
 31
0.0
  0
LINE
  5
2AC
330
1F
100
AcDbEntity
  8
Layer1
 62
     7
370
    25
100
AcDbLine
 10
-26.63931918929616
 20
25.75612097184688
 30
0.0
 11
-26.60396385023684
 21
25.72076563278756
 31
0.0
  0
LINE
  5
2AD
330
1F
100
AcDbEntity
  8
Layer1
 62
     7
370
    25
100
AcDbLine
 10
-34.79845945643838
 20
25.72062956366713
 30
0.0
 11
-34.76310411737906
 21
25.75598490272645
 31
0.0
  0
LINE
  5
2AE
330
1F
100
AcDbEntity
  8
Layer1
 62
     7
370
    25
100
AcDbLine
 10
-78.88664560864322
 20
24.21619488033733
 30
0.0
 11
-78.88496346162233
 21
24.1662231845346
 31
0.0
  0
ARC
  5
2AF
330
1F
100
AcDbEntity
  8
Layer1
 62
     7
370
    25
100
AcDbCircle
 10
-65.30943862916627
 20
25.56002326944481
 30
0.0
 40
0.3750000000000578
100
AcDbArc
 50
179.9999958173804
 51
269.9999999461094
  0
CIRCLE
  5
2B0
330
1F
100
AcDbEntity
  8
Layer1
 62
     7
370
    25
100
AcDbCircle
 10
-64.18443862916632
 20
25.56002326944481
 30
0.0
 40
0.1875
  0
ARC
  5
2B1
330
1F
100
AcDbEntity
  8
Layer1
 62
     7
370
    25
100
AcDbCircle
 10
-30.68434444998934
 20
0.0524818506811471
 30
0.0
 40
2.449999999999979
100
AcDbArc
 50
35.74104316825682
 51
144.2663911010872
  0
LINE
  5
2B2
330
1F
100
AcDbEntity
  8
Layer1
 62
     7
370
    25
100
AcDbLine
 10
-28.65518118603745
 20
1.512788821228128
 30
0.0
 11
-28.6957644513165
 21
1.483582681817182
 31
0.0
  0
ARC
  5
2B3
330
1F
100
AcDbEntity
  8
Layer1
 62
     7
370
    25
100
AcDbCircle
 10
-30.68434444998934
 20
0.0524818506811471
 30
0.0
 40
2.500000000000008
100
AcDbArc
 50
24.26639110108679
 51
35.7410431682567
  0
ARC
  5
2B4
330
1F
100
AcDbEntity
  8
Layer1
 62
     7
370
    25
100
AcDbCircle
 10
-30.68434444998936
 20
0.0524818506811471
 30
0.0
 40
2.499999999999998
100
AcDbArc
 50
144.266391101087
 51
155.7410431682566
  0
LINE
  5
2B5
330
1F
100
AcDbEntity
  8
Layer1
 62
     7
370
    25
100
AcDbLine
 10
-32.96358901578252
 20
1.079635300416157
 30
0.0
 11
-32.91800412446663
 21
1.059092231421431
 31
0.0
  0
LINE
  5
2B6
330
1F
100
AcDbEntity
  8
Layer1
 62
     7
370
    25
100
AcDbLine
 10
-45.65169683395928
 20
33.69186068172974
 30
0.0
 11
-45.65169683395928
 21
25.4418606443972
 31
0.0
  0
ARC
  5
2B7
330
1F
100
AcDbEntity
  8
Layer1
 62
     7
370
    25
100
AcDbCircle
 10
-30.70127968789781
 20
29.46439201073483
 30
0.0
 40
5.549999999999992
100
AcDbArc
 50
137.5827588578157
 51
222.4192297322981
  0
MTEXT
  5
2B8
330
1F
100
AcDbEntity
  8
Layer1
 62
     7
370
    25
100
AcDbMText
 10
-48.62813061739683
 20
52.88467158485174
 30
0.0
 40
1.333333373069763
 41
9.205395548271637
 71
     1
 72
     1
  1
{\C7;\l\fPlotter|b0|i0|c00|p34;\H1.00x;SM1004\P}
 73
     1
 44
1.0
  0
CIRCLE
  5
2B9
330
1F
100
AcDbEntity
  8
Layer1
 62
     7
370
    25
100
AcDbCircle
 10
-43.6156804387695
 20
64.79123329220992
 30
0.0
 40
0.1875000000000152
  0
CIRCLE
  5
2BA
330
1F
100
AcDbEntity
  8
Layer1
 62
     7
370
    25
100
AcDbCircle
 10
-40.55955799074702
 20
60.58609416825443
 30
0.0
 40
0.187500000000006
  0
ARC
  5
2BB
330
1F
100
AcDbEntity
  8
Layer1
 62
     7
370
    25
100
AcDbCircle
 10
-41.89577481897682
 20
64.83268399520686
 30
0.0
 40
1.000000000000018
100
AcDbArc
 50
178.8404368491855
 51
289.1595631508162
  0
ARC
  5
2BC
330
1F
100
AcDbEntity
  8
Layer1
 62
     7
370
    25
100
AcDbCircle
 10
-44.98155794639744
 20
60.58546788813005
 30
0.0
 40
4.74999999999999
100
AcDbArc
 50
279.9499984374636
 51
332.0500015625365
  0
ARC
  5
2BD
330
1F
100
AcDbEntity
  8
Layer1
 62
     7
370
    25
100
AcDbCircle
 10
-44.98155794639744
 20
55.33562006465111
 30
0.0
 40
0.9999999999999946
100
AcDbArc
 50
34.84043684918414
 51
145.1595631508158
  0
ARC
  5
2BE
330
1F
100
AcDbEntity
  8
Layer1
 62
     7
370
    25
100
AcDbCircle
 10
-39.9886559643199
 20
58.96317569279275
 30
0.0
 40
0.9999999999999847
100
AcDbArc
 50
106.8404368491843
 51
217.159563150815
  0
CIRCLE
  5
2BF
330
1F
100
AcDbEntity
  8
Layer1
 62
     7
370
    25
100
AcDbCircle
 10
-43.6144891831829
 20
56.38008954645348
 30
0.0
 40
0.1874999999999742
  0
ARC
  5
2C0
330
1F
100
AcDbEntity
  8
Layer1
 62
     7
370
    25
100
AcDbCircle
 10
-44.98155794639744
 20
60.58546788813005
 30
0.0
 40
4.749999999999951
100
AcDbArc
 50
351.9499984374636
 51
44.05000156253709
  0
ARC
  5
2C1
330
1F
100
AcDbEntity
  8
Layer1
 62
     7
370
    25
100
AcDbCircle
 10
-48.06734107381813
 20
64.83268399520686
 30
0.0
 40
0.9999999999999633
100
AcDbArc
 50
250.8404368491864
 51
1.15956315081137
  0
ARC
  5
2C2
330
1F
100
AcDbEntity
  8
Layer1
 62
     7
370
    25
100
AcDbCircle
 10
-44.98155794639744
 20
60.58546788813005
 30
0.0
 40
4.749999999999992
100
AcDbArc
 50
135.9499984374631
 51
188.050001562536
  0
CIRCLE
  5
2C3
330
1F
100
AcDbEntity
  8
Layer1
 62
     7
370
    25
100
AcDbCircle
 10
-48.55939917786482
 20
63.18414757643548
 30
0.0
 40
0.1875000000000028
  0
ARC
  5
2C4
330
1F
100
AcDbEntity
  8
Layer1
 62
     7
370
    25
100
AcDbCircle
 10
-49.97445992847499
 20
58.96317569279275
 30
0.0
 40
1.000000000000006
100
AcDbArc
 50
322.8404368491836
 51
73.15956315081618
  0
CIRCLE
  5
2C5
330
1F
100
AcDbEntity
  8
Layer1
 62
     7
370
    25
100
AcDbCircle
 10
-48.55866294142301
 20
57.98577485729687
 30
0.0
 40
0.1875000000000215
  0
ARC
  5
2C6
330
1F
100
AcDbEntity
  8
Layer1
 62
     7
370
    25
100
AcDbCircle
 10
-44.98155794639744
 20
60.58546788813005
 30
0.0
 40
4.749999999999952
100
AcDbArc
 50
207.9499984374639
 51
260.0500015625364
  0
CIRCLE
  5
2C7
330
1F
100
AcDbEntity
  8
Layer1
 62
     7
370
    25
100
AcDbCircle
 10
-44.98155794639744
 20
60.58546788813005
 30
0.0
 40
3.750000000000021
  0
ARC
  5
2C8
330
1F
100
AcDbEntity
  8
Layer1
 62
     7
370
    25
100
AcDbCircle
 10
-44.98155794639744
 20
60.58546788813005
 30
0.0
 40
4.749999999999957
100
AcDbArc
 50
63.94999843746423
 51
116.0500015625367
  0
CIRCLE
  5
2C9
330
1F
100
AcDbEntity
  8
Layer1
 62
     7
370
    25
100
AcDbCircle
 10
-73.78059921501648
 20
66.32231290454563
 30
0.0
 40
0.4375000000000066
  0
ARC
  5
2CA
330
1F
100
AcDbEntity
  8
Layer1
 62
     7
370
    25
100
AcDbCircle
 10
-80.13979842795047
 20
64.25463615069678
 30
0.0
 40
6.049999999999958
100
AcDbArc
 50
56.38858906351692
 51
123.6114856336216
  0
LINE
  5
2CB
330
1F
100
AcDbEntity
  8
Layer1
 62
     7
370
    25
100
AcDbLine
 10
-76.4137610779282
 20
68.9578785802445
 30
0.0
 11
-76.38291186833641
 21
68.99681954847792
 31
0.0
  0
LINE
  5
2CC
330
1F
100
AcDbEntity
  8
Layer1
 62
     7
370
    25
100
AcDbLine
 10
-76.8182802827447
 20
69.25176183087764
 30
0.0
 11
-76.79077602763778
 21
69.29314277093688
 31
0.0
  0
ARC
  5
2CD
330
1F
100
AcDbEntity
  8
Layer1
 62
     7
370
    25
100
AcDbCircle
 10
80.13956014200025
 20
64.25480109728845
 30
0.0
 40
6.000043039556368
210
0.0
220
0.0
230
-1.0
100
AcDbArc
 50
123.6103962374892
 51
128.3864230105966
  0
LINE
  5
2CE
330
1F
100
AcDbEntity
  8
Layer1
 62
     7
370
    25
100
AcDbLine
 10
-83.46103388112107
 20
69.25132398818376
 30
0.0
 11
-83.4888273970169
 21
69.29313840477529
 31
0.0
  0
LINE
  5
2CF
330
1F
100
AcDbEntity
  8
Layer1
 62
     7
370
    25
100
AcDbLine
 10
-83.86553677050512
 20
68.95741828128423
 30
0.0
 11
-83.89672750424216
 21
68.99678586530031
 31
0.0
  0
ARC
  5
2D0
330
1F
100
AcDbEntity
  8
Layer1
 62
     7
370
    25
100
AcDbCircle
 10
80.13947662273935
 20
64.25454764179595
 30
0.0
 40
6.000043039556395
210
0.0
220
0.0
230
-1.0
100
AcDbArc
 50
51.61039623748993
 51
56.38642301059821
  0
CIRCLE
  5
2D1
330
1F
100
AcDbEntity
  8
Layer1
 62
     7
370
    25
100
AcDbCircle
 10
-80.14041668120214
 20
70.94152391865806
 30
0.0
 40
0.4374999999999885
  0
CIRCLE
  5
2D2
330
1F
100
AcDbEntity
  8
Layer1
 62
     7
370
    25
100
AcDbCircle
 10
-72.4122412134144
 20
66.76589758228242
 30
0.0
 40
0.187499999999994
  0
CIRCLE
  5
2D3
330
1F
100
AcDbEntity
  8
Layer1
 62
     7
370
    25
100
AcDbCircle
 10
-75.36401270549243
 20
70.82818463787437
 30
0.0
 40
0.1874999999999871
  0
CIRCLE
  5
2D4
330
1F
100
AcDbEntity
  8
Layer1
 62
     7
370
    25
100
AcDbCircle
 10
-80.13979842795047
 20
72.37963615069681
 30
0.0
 40
0.1875
  0
CIRCLE
  5
2D5
330
1F
100
AcDbEntity
  8
Layer1
 62
     7
370
    25
100
AcDbCircle
 10
-84.91541055779618
 20
70.82765037474907
 30
0.0
 40
0.1874999999999871
  0
LINE
  5
2D6
330
1F
100
AcDbEntity
  8
Layer1
 62
     7
370
    25
100
AcDbLine
 10
-85.91833533254425
 20
62.63947414670939
 30
0.0
 11
-85.96649918502902
 21
62.62601425388532
 31
0.0
  0
ARC
  5
2D7
330
1F
100
AcDbEntity
  8
Layer1
 62
     7
370
    25
100
AcDbCircle
 10
80.13970098721333
 20
64.25437401341627
 30
0.0
 40
6.000043039556362
210
0.0
220
0.0
230
-1.0
100
AcDbArc
 50
339.6103962374902
 51
344.3864230105978
  0
LINE
  5
2D8
330
1F
100
AcDbEntity
  8
Layer1
 62
     7
370
    25
100
AcDbLine
 10
-85.76381266191464
 20
62.16394717972484
 30
0.0
 11
-85.81063958009025
 21
62.14654207613601
 31
0.0
  0
LINE
  5
2D9
330
1F
100
AcDbEntity
  8
Layer1
 62
     7
370
    25
100
AcDbLine
 10
-74.3606209134374
 20
62.6403797851987
 30
0.0
 11
-74.31284374554917
 21
62.62703081486124
 31
0.0
  0
LINE
  5
2DA
330
1F
100
AcDbEntity
  8
Layer1
 62
     7
370
    25
100
AcDbLine
 10
-74.51511718514269
 20
62.16484424068362
 30
0.0
 11
-74.46858243870997
 21
62.14755067464658
 31
0.0
  0
ARC
  5
2DB
330
1F
100
AcDbEntity
  8
Layer1
 62
     7
370
    25
100
AcDbCircle
 10
80.13934490037352
 20
64.2549588508803
 30
0.0
 40
6.000043039556306
210
0.0
220
0.0
230
-1.0
100
AcDbArc
 50
195.6103962374904
 51
200.3864230105982
  0
ARC
  5
2DC
330
1F
100
AcDbEntity
  8
Layer1
 62
     7
370
    25
100
AcDbCircle
 10
-80.13979842795047
 20
64.25463615069678
 30
0.0
 40
6.049999999999891
100
AcDbArc
 50
344.393702909023
 51
51.61277813818378
  0
ARC
  5
2DD
330
1F
100
AcDbEntity
  8
Layer1
 62
     7
370
    25
100
AcDbCircle
 10
-80.13979842795047
 20
64.25463615069678
 30
0.0
 40
6.050000000000026
100
AcDbArc
 50
128.387735556592
 51
195.616216289546
  0
CIRCLE
  5
2DE
330
1F
100
AcDbEntity
  8
Layer1
 62
     7
370
    25
100
AcDbCircle
 10
-72.41196033466736
 20
61.74443056709843
 30
0.0
 40
0.187499999999994
  0
CIRCLE
  5
2DF
330
1F
100
AcDbEntity
  8
Layer1
 62
     7
370
    25
100
AcDbCircle
 10
-84.06874279454559
 20
58.84516565404211
 30
0.0
 40
0.4374999999999765
  0
LINE
  5
2E0
330
1F
100
AcDbEntity
  8
Layer1
 62
     7
370
    25
100
AcDbLine
 10
-80.38896353006174
 20
58.25976891012066
 30
0.0
 11
-80.39104368280431
 21
58.2098552760982
 31
0.0
  0
LINE
  5
2E1
330
1F
100
AcDbEntity
  8
Layer1
 62
     7
370
    25
100
AcDbLine
 10
-79.88896037819632
 20
58.25978278885655
 30
0.0
 11
-79.88687745452182
 21
58.20986927038977
 31
0.0
  0
ARC
  5
2E2
330
1F
100
AcDbEntity
  8
Layer1
 62
     7
370
    25
100
AcDbCircle
 10
80.13912835447147
 20
64.25460826256095
 30
0.0
 40
6.000043039556361
210
0.0
220
0.0
230
-1.0
100
AcDbArc
 50
267.6103962374908
 51
272.3864230105974
  0
CIRCLE
  5
2E3
330
1F
100
AcDbEntity
  8
Layer1
 62
     7
370
    25
100
AcDbCircle
 10
-76.20843827195648
 20
58.84635235691725
 30
0.0
 40
0.4374999999999978
  0
CIRCLE
  5
2E4
330
1F
100
AcDbEntity
  8
Layer1
 62
     7
370
    25
100
AcDbCircle
 10
-80.1388894852316
 20
56.12982754278833
 30
0.0
 40
0.1875
  0
CIRCLE
  5
2E5
330
1F
100
AcDbEntity
  8
Layer1
 62
     7
370
    25
100
AcDbCircle
 10
-75.36327735538595
 20
57.68181331873608
 30
0.0
 40
0.1874999999999871
  0
CIRCLE
  5
2E6
330
1F
100
AcDbEntity
  8
Layer1
 62
     7
370
    25
100
AcDbCircle
 10
-84.91467520768975
 20
57.68127905561077
 30
0.0
 40
0.1874999999999871
  0
ARC
  5
2E7
330
1F
100
AcDbEntity
  8
Layer1
 62
     7
370
    25
100
AcDbCircle
 10
-80.13979842795047
 20
64.25463615069678
 30
0.0
 40
6.050000000000026
100
AcDbArc
 50
200.3922522639196
 51
267.6199283314332
  0
ARC
  5
2E8
330
1F
100
AcDbEntity
  8
Layer1
 62
     7
370
    25
100
AcDbCircle
 10
-80.13979842795047
 20
64.25463615069678
 30
0.0
 40
6.049999999999986
100
AcDbArc
 50
272.3959330806177
 51
339.6179378518598
  0
CIRCLE
  5
2E9
330
1F
100
AcDbEntity
  8
Layer1
 62
     7
370
    25
100
AcDbCircle
 10
-86.49883909449017
 20
66.32039277895909
 30
0.0
 40
0.4374999999999828
  0
CIRCLE
  5
2EA
330
1F
100
AcDbEntity
  8
Layer1
 62
     7
370
    25
100
AcDbCircle
 10
-87.86672757851494
 20
66.76503312638674
 30
0.0
 40
0.1875000000001021
  0
CIRCLE
  5
2EB
330
1F
100
AcDbEntity
  8
Layer1
 62
     7
370
    25
100
AcDbCircle
 10
-87.86644669976789
 20
61.7435661112027
 30
0.0
 40
0.1875000000000028
  0
CIRCLE
  5
2EC
330
1F
100
AcDbEntity
  8
Layer1
 62
     7
370
    25
100
AcDbCircle
 10
-80.13979842795047
 20
64.25463615069678
 30
0.0
 40
8.499999999999986
  0
MTEXT
  5
2ED
330
1F
100
AcDbEntity
  8
Layer1
 62
     7
370
    25
100
AcDbMText
 10
-84.82676545502379
 20
52.87304519792288
 30
0.0
 40
1.333333373069763
 41
9.205395548271637
 71
     1
 72
     1
  1
{\C7;\l\fPlotter|b0|i0|c00|p34;SM1002\P}
 73
     1
 44
1.0
  0
CIRCLE
  5
2EE
330
1F
100
AcDbEntity
  8
Layer1
 62
     7
370
    25
100
AcDbCircle
 10
-99.53169935453795
 20
40.07078052750745
 30
0.0
 40
0.1875
  0
CIRCLE
  5
2EF
330
1F
100
AcDbEntity
  8
Layer1
 62
     7
370
    25
100
AcDbCircle
 10
-56.30536595572541
 20
60.24817830311882
 30
0.0
 40
0.6149999999999927
  0
CIRCLE
  5
2F0
330
1F
100
AcDbEntity
  8
Layer1
 62
     7
370
    25
100
AcDbCircle
 10
-56.51976651701388
 20
61.75526243082111
 30
0.0
 40
0.1874999999999614
  0
CIRCLE
  5
2F1
330
1F
100
AcDbEntity
  8
Layer1
 62
     7
370
    25
100
AcDbCircle
 10
-60.94176647266441
 20
56.87963615069673
 30
0.0
 40
0.6150000000000477
  0
CIRCLE
  5
2F2
330
1F
100
AcDbEntity
  8
Layer1
 62
     7
370
    25
100
AcDbCircle
 10
-63.80721957759012
 20
65.6985939982746
 30
0.0
 40
0.6150000000000543
  0
CIRCLE
  5
2F3
330
1F
100
AcDbEntity
  8
Layer1
 62
     7
370
    25
100
AcDbCircle
 10
-65.57816698960318
 20
60.24817830311882
 30
0.0
 40
0.6150000000000345
  0
CIRCLE
  5
2F4
330
1F
100
AcDbEntity
  8
Layer1
 62
     7
370
    25
100
AcDbCircle
 10
-70.0017300911782
 20
2.124272015603992
 30
0.0
 40
0.1875000000000116
  0
ARC
  5
2F5
330
1F
100
AcDbEntity
  8
Layer1
 62
     7
370
    25
100
AcDbCircle
 10
-79.137285514756
 20
31.66197755494338
 30
0.0
 40
7.44999999999999
100
AcDbArc
 50
271.9279623062521
 51
340.0710441771569
  0
LINE
  5
2F6
330
1F
100
AcDbEntity
  8
Layer1
 62
     7
370
    25
100
AcDbLine
 10
-64.73443862916628
 20
26.1350232694448
 30
0.0
 11
-64.73443862916628
 21
33.2350232694448
 31
0.0
  0
LINE
  5
2F7
330
1F
100
AcDbEntity
  8
Layer1
 62
     7
370
    25
100
AcDbLine
 10
-65.68443862916632
 20
25.56002329698465
 30
0.0
 11
-65.68443862916632
 21
33.81002326146107
 31
0.0
  0
LINE
  5
2F8
330
1F
100
AcDbEntity
  8
Layer1
 62
     7
370
    25
100
AcDbLine
 10
-60.63443862916631
 20
26.1350232694448
 30
0.0
 11
-60.63443862916631
 21
33.2350232694448
 31
0.0
  0
LINE
  5
2F9
330
1F
100
AcDbEntity
  8
Layer1
 62
     7
370
    25
100
AcDbLine
 10
-83.71657870617798
 20
37.53841983467316
 30
0.0
 11
-83.74731221752984
 21
37.57785904460425
 31
0.0
  0
ARC
  5
2FA
330
1F
100
AcDbEntity
  8
Layer1
 62
     7
370
    25
100
AcDbCircle
 10
-79.137285514756
 20
31.66197755494338
 30
0.0
 40
7.500000000000004
100
AcDbArc
 50
124.071044177157
 51
127.9279623062524
  0
LINE
  5
2FB
330
1F
100
AcDbEntity
  8
Layer1
 62
     7
370
    25
100
AcDbLine
 10
-65.30943864377377
 20
34.18502326944478
 30
0.0
 11
-60.05943861937322
 21
34.18502326944478
 31
0.0
  0
ARC
  5
2FC
330
1F
100
AcDbEntity
  8
Layer1
 62
     7
370
    25
100
AcDbCircle
 10
-30.70127968789781
 20
29.46439201073483
 30
0.0
 40
5.549999999999984
100
AcDbArc
 50
317.5827588578156
 51
42.41922973229861
  0
ARC
  5
2FD
330
1F
100
AcDbEntity
  8
Layer1
 62
     7
370
    25
100
AcDbCircle
 10
-30.70127968789781
 20
29.46439201073483
 30
0.0
 40
7.099999999999993
100
AcDbArc
 50
285.1034937543469
 51
254.8965062456526
  0
LINE
  5
2FE
330
1F
100
AcDbEntity
  8
Layer1
 62
     7
370
    25
100
AcDbLine
 10
-26.60409991935724
 20
33.20815445780252
 30
0.0
 11
-26.63945525841656
 21
33.1727991187432
 31
0.0
  0
LINE
  5
2FF
330
1F
100
AcDbEntity
  8
Layer1
 62
     7
370
    25
100
AcDbLine
 10
-26.63945525841656
 20
33.1727991187432
 30
0.0
 11
-26.99300864900984
 21
33.52635250933648
 31
0.0
  0
LINE
  5
300
330
1F
100
AcDbEntity
  8
Layer1
 62
     7
370
    25
100
AcDbLine
 10
-26.99300864900984
 20
33.52635250933648
 30
0.0
 11
-26.95765330995052
 21
33.5617078483958
 31
0.0
  0
LINE
  5
301
330
1F
100
AcDbEntity
  8
Layer1
 62
     7
370
    25
100
AcDbLine
 10
-34.76324018649946
 20
33.17266304962277
 30
0.0
 11
-34.79859552555878
 21
33.20801838868212
 31
0.0
  0
LINE
  5
302
330
1F
100
AcDbEntity
  8
Layer1
 62
     7
370
    25
100
AcDbLine
 10
-72.13342140553661
 20
29.12261000777966
 30
0.0
 11
-72.08641560614586
 21
29.10556727256377
 31
0.0
  0
CIRCLE
  5
303
330
1F
100
AcDbEntity
  8
Layer1
 62
     7
370
    25
100
AcDbCircle
 10
-61.18443862916634
 20
33.81002326944481
 30
0.0
 40
0.1875
  0
CIRCLE
  5
304
330
1F
100
AcDbEntity
  8
Layer1
 62
     7
370
    25
100
AcDbCircle
 10
-59.57469770944986
 20
57.54925780902015
 30
0.0
 40
0.1875000000000202
  0
CIRCLE
  5
305
330
1F
100
AcDbEntity
  8
Layer1
 62
     7
370
    25
100
AcDbCircle
 10
-59.57588896503644
 20
65.96040155477657
 30
0.0
 40
0.1874999999999584
  0
CIRCLE
  5
306
330
1F
100
AcDbEntity
  8
Layer1
 62
     7
370
    25
100
AcDbCircle
 10
-58.07631336773859
 20
65.69859399827457
 30
0.0
 40
0.6150000000000246
  0
MTEXT
  5
307
330
1F
100
AcDbEntity
  8
Layer1
 62
     7
370
    25
100
AcDbMText
 10
-65.6064183684518
 20
53.28425553619623
 30
0.0
 40
1.333333373069763
 41
9.205395548271637
 71
     1
 72
     1
  1
{\C7;\l\fPlotter|b0|i0|c00|p34;SM1003\P}
 73
     1
 44
1.0
  0
CIRCLE
  5
308
330
1F
100
AcDbEntity
  8
Layer1
 62
     7
370
    25
100
AcDbCircle
 10
-60.94176647266441
 20
61.75463615069673
 30
0.0
 40
3.750000000000028
  0
ARC
  5
309
330
1F
100
AcDbEntity
  8
Layer1
 62
     7
370
    25
100
AcDbCircle
 10
-60.94176647266441
 20
61.75463615069673
 30
0.0
 40
5.949999999999893
100
AcDbArc
 50
128.3859440303882
 51
195.6140559696119
  0
ARC
  5
30A
330
1F
100
AcDbEntity
  8
Layer1
 62
     7
370
    25
100
AcDbCircle
 10
-60.94176647266441
 20
61.75463615069673
 30
0.0
 40
5.949999999999983
100
AcDbArc
 50
56.38594403038843
 51
123.6140559696104
  0
ARC
  5
30B
330
1F
100
AcDbEntity
  8
Layer1
 62
     7
370
    25
100
AcDbCircle
 10
-60.94176647266441
 20
61.75463615069673
 30
0.0
 40
5.950000000000086
100
AcDbArc
 50
344.3859440303892
 51
51.61405596961049
  0
ARC
  5
30C
330
1F
100
AcDbEntity
  8
Layer1
 62
     7
370
    25
100
AcDbCircle
 10
-60.94176647266441
 20
61.75463615069673
 30
0.0
 40
5.950000000000003
100
AcDbArc
 50
272.3859440303895
 51
339.6140559696116
  0
ARC
  5
30D
330
1F
100
AcDbEntity
  8
Layer1
 62
     7
370
    25
100
AcDbCircle
 10
-60.94176647266441
 20
61.75463615069673
 30
0.0
 40
5.949999999999905
100
AcDbArc
 50
200.3859440303891
 51
267.6140559696118
  0
LINE
  5
30E
330
1F
100
AcDbEntity
  8
Layer1
 62
     7
370
    25
100
AcDbLine
 10
-66.72535981902902
 20
60.13829831352079
 30
0.0
 11
-66.57085132184153
 21
59.66277005537323
 31
0.0
  0
LINE
  5
30F
330
1F
100
AcDbEntity
  8
Layer1
 62
     7
370
    25
100
AcDbLine
 10
-66.57085132184153
 20
59.66277005537323
 30
0.0
 11
-66.51910294301985
 21
59.68200065538115
 31
0.0
  0
LINE
  5
310
330
1F
100
AcDbEntity
  8
Layer1
 62
     7
370
    25
100
AcDbLine
 10
-66.72535981902902
 20
60.13829831352079
 30
0.0
 11
-66.67219103805354
 21
60.1531573652038
 31
0.0
  0
LINE
  5
311
330
1F
100
AcDbEntity
  8
Layer1
 62
     7
370
    25
100
AcDbLine
 10
-64.26622373782544
 20
66.75568443001951
 30
0.0
 11
-64.6707322350129
 21
66.46179180387331
 31
0.0
  0
LINE
  5
312
330
1F
100
AcDbEntity
  8
Layer1
 62
     7
370
    25
100
AcDbLine
 10
-64.6707322350129
 20
66.46179180387331
 30
0.0
 11
-64.63645171907586
 21
66.41851875320167
 31
0.0
  0
LINE
  5
313
330
1F
100
AcDbEntity
  8
Layer1
 62
     7
370
    25
100
AcDbLine
 10
-64.26622373782544
 20
66.75568443001951
 30
0.0
 11
-64.2356618830047
 21
66.70970961389968
 31
0.0
  0
LINE
  5
314
330
1F
100
AcDbEntity
  8
Layer1
 62
     7
370
    25
100
AcDbLine
 10
-57.21280071031575
 20
66.46179180387331
 30
0.0
 11
-57.61730920750324
 21
66.75568443001957
 31
0.0
  0
LINE
  5
315
330
1F
100
AcDbEntity
  8
Layer1
 62
     7
370
    25
100
AcDbLine
 10
-57.61730920750324
 20
66.75568443001957
 30
0.0
 11
-57.64787106232393
 21
66.70970961389973
 31
0.0
  0
LINE
  5
316
330
1F
100
AcDbEntity
  8
Layer1
 62
     7
370
    25
100
AcDbLine
 10
-57.21280071031575
 20
66.46179180387331
 30
0.0
 11
-57.24708122625279
 21
66.41851875320172
 31
0.0
  0
LINE
  5
317
330
1F
100
AcDbEntity
  8
Layer1
 62
     7
370
    25
100
AcDbLine
 10
-55.31268162348711
 20
59.66277005537323
 30
0.0
 11
-55.15817312629964
 21
60.13829831352079
 31
0.0
  0
LINE
  5
318
330
1F
100
AcDbEntity
  8
Layer1
 62
     7
370
    25
100
AcDbLine
 10
-55.15817312629964
 20
60.13829831352079
 30
0.0
 11
-55.2113419072751
 21
60.15315736520385
 31
0.0
  0
LINE
  5
319
330
1F
100
AcDbEntity
  8
Layer1
 62
     7
370
    25
100
AcDbLine
 10
-55.31268162348711
 20
59.66277005537323
 30
0.0
 11
-55.36443000230879
 21
59.68200065538115
 31
0.0
  0
LINE
  5
31A
330
1F
100
AcDbEntity
  8
Layer1
 62
     7
370
    25
100
AcDbLine
 10
-61.19176647266436
 20
55.75463615069673
 30
0.0
 11
-61.18946821370183
 21
55.80979436579723
 31
0.0
  0
LINE
  5
31B
330
1F
100
AcDbEntity
  8
Layer1
 62
     7
370
    25
100
AcDbLine
 10
-60.6917664726644
 20
55.75463615069673
 30
0.0
 11
-60.69406473162692
 21
55.80979436579723
 31
0.0
  0
LINE
  5
31C
330
1F
100
AcDbEntity
  8
Layer1
 62
     7
370
    25
100
AcDbLine
 10
-61.19176647266436
 20
55.75463615069673
 30
0.0
 11
-60.6917664726644
 21
55.75463615069673
 31
0.0
  0
LINE
  5
31D
330
1F
100
AcDbEntity
  8
Layer1
 62
     7
370
    25
100
AcDbLine
 10
-34.40968679590618
 20
33.52621644021605
 30
0.0
 11
-34.76324018649946
 21
33.17266304962277
 31
0.0
  0
LINE
  5
31E
330
1F
100
AcDbEntity
  8
Layer1
 62
     7
370
    25
100
AcDbLine
 10
-34.4450421349655
 20
33.56157177927537
 30
0.0
 11
-34.40968679590618
 21
33.52621644021605
 31
0.0
  0
ARC
  5
31F
330
1F
100
AcDbEntity
  8
Layer1
 62
     7
370
    25
100
AcDbCircle
 10
-30.70127968789781
 20
29.46439201073483
 30
0.0
 40
5.549999999999984
100
AcDbArc
 50
47.58275885781568
 51
132.4192297322986
  0
ARC
  5
320
330
1F
100
AcDbEntity
  8
Layer1
 62
     7
370
    25
100
AcDbCircle
 10
-65.30943862916627
 20
33.81002326944481
 30
0.0
 40
0.3749999999999719
100
AcDbArc
 50
90.00000223186284
 51
180.0000014787793
  0
LINE
  5
321
330
1F
100
AcDbEntity
  8
Layer1
 62
     7
370
    25
100
AcDbLine
 10
-74.96353621036153
 20
37.83306471557131
 30
0.0
 11
-74.93552447006357
 21
37.87448140792452
 31
0.0
  0
ARC
  5
322
330
1F
100
AcDbEntity
  8
Layer1
 62
     7
370
    25
100
AcDbCircle
 10
-79.137285514756
 20
31.66197755494338
 30
0.0
 40
7.50000000000001
100
AcDbArc
 50
52.07104417715718
 51
55.92796230625217
  0
ARC
  5
323
330
1F
100
AcDbEntity
  8
Layer1
 62
     7
370
    25
100
AcDbCircle
 10
-79.137285514756
 20
31.66197755494338
 30
0.0
 40
7.450000000000006
100
AcDbArc
 50
55.92796230625238
 51
124.0710441771568
  0
ARC
  5
324
330
1F
100
AcDbEntity
  8
Layer1
 62
     7
370
    25
100
AcDbCircle
 10
-60.05943862916632
 20
33.81002326944481
 30
0.0
 40
0.3750000000000146
100
AcDbArc
 50
0.0000024148365395
 51
90.00000237295123
  0
CIRCLE
  5
325
330
1F
100
AcDbEntity
  8
Layer1
 62
     7
370
    25
100
AcDbCircle
 10
-65.30943862916627
 20
31.31002326944481
 30
0.0
 40
0.1875
  0
LINE
  5
326
330
1F
100
AcDbEntity
  8
Layer1
 62
     7
370
    25
100
AcDbLine
 10
-60.63443862916631
 20
26.1350232694448
 30
0.0
 11
-64.73443862916628
 21
26.1350232694448
 31
0.0
  0
LINE
  5
327
330
1F
100
AcDbEntity
  8
Layer1
 62
     7
370
    25
100
AcDbLine
 10
-60.05943862783198
 20
25.18502326944481
 30
0.0
 11
-65.30943862951898
 21
25.18502326944481
 31
0.0
  0
LINE
  5
328
330
1F
100
AcDbEntity
  8
Layer1
 62
     7
370
    25
100
AcDbLine
 10
-79.38805453171295
 20
24.21619922758671
 30
0.0
 11
-79.38973754524957
 21
24.16622756096015
 31
0.0
  0
CIRCLE
  5
329
330
1F
100
AcDbEntity
  8
Layer1
 62
     7
370
    25
100
AcDbCircle
 10
-61.18443862916639
 20
25.56002326944481
 30
0.0
 40
0.1875
  0
ARC
  5
32A
330
1F
100
AcDbEntity
  8
Layer1
 62
     7
370
    25
100
AcDbCircle
 10
-79.137285514756
 20
31.66197755494338
 30
0.0
 40
7.499999999999989
100
AcDbArc
 50
268.0710441771569
 51
271.9279623062521
  0
CIRCLE
  5
32B
330
1F
100
AcDbEntity
  8
Layer1
 62
     7
370
    25
100
AcDbCircle
 10
-99.530123301369
 20
23.82066909761252
 30
0.0
 40
0.1875
  0
LINE
  5
32C
330
1F
100
AcDbEntity
  8
Layer1
 62
     7
370
    25
100
AcDbLine
 10
-99.28114094668999
 20
24.40014753510084
 30
0.0
 11
-99.28280983869055
 21
24.45047827398767
 31
0.0
  0
LINE
  5
32D
330
1F
100
AcDbEntity
  8
Layer1
 62
     7
370
    25
100
AcDbLine
 10
-99.78116527341783
 20
24.40013447909948
 30
0.0
 11
-99.77949858041242
 21
24.45047827398767
 31
0.0
  0
ARC
  5
32E
330
1F
100
AcDbEntity
  8
Layer1
 62
     7
370
    25
100
AcDbCircle
 10
-60.05943862916632
 20
25.56002326944481
 30
0.0
 40
0.375
100
AcDbArc
 50
270.0000000538212
 51
0.0000017075472925
  0
MTEXT
  5
32F
330
1F
100
AcDbEntity
  8
Layer1
 62
     7
370
    25
100
AcDbMText
 10
-83.81472356175423
 20
20.42073557094693
 30
0.0
 40
1.333333373069763
 41
9.205395548271637
 71
     1
 72
     1
  1
{\C7;\l\fPlotter|b0|i0|c00|p34;SM1008\P}
 73
     1
 44
1.0
  0
MTEXT
  5
330
330
1F
100
AcDbEntity
  8
Layer1
 62
     7
370
    25
100
AcDbMText
 10
-66.48260817419624
 20
20.40692188090994
 30
0.0
 40
1.333333373069763
 41
9.205395548271637
 71
     1
 72
     1
  1
{\C7;\l\fPlotter|b0|i0|c00|p34;SM1009\P}
 73
     1
 44
1.0
  0
CIRCLE
  5
331
330
1F
100
AcDbEntity
  8
Layer1
 62
     7
370
    25
100
AcDbCircle
 10
-66.4750185774234
 20
2.124272015603964
 30
0.0
 40
0.1875000000000039
  0
CIRCLE
  5
332
330
1F
100
AcDbEntity
  8
Layer1
 62
     7
370
    25
100
AcDbCircle
 10
-48.65169683346849
 20
29.24186066282607
 30
0.0
 40
0.5500000000000114
  0
CIRCLE
  5
333
330
1F
100
AcDbEntity
  8
Layer1
 62
     7
370
    25
100
AcDbCircle
 10
-48.65169683346849
 20
30.34186066282604
 30
0.0
 40
0.549999999999983
  0
LINE
  5
334
330
1F
100
AcDbEntity
  8
Layer1
 62
     7
370
    25
100
AcDbLine
 10
-32.7136971753069
 20
1.512525519975412
 30
0.0
 11
-32.67311012080056
 21
1.483324646589551
 31
0.0
  0
LINE
  5
335
330
1F
100
AcDbEntity
  8
Layer1
 62
     7
370
    25
100
AcDbLine
 10
-28.40523317908707
 20
1.079931029398182
 30
0.0
 11
-28.45081540450513
 21
1.059382045823838
 31
0.0
  0
LINE
  5
336
330
1F
100
AcDbEntity
  8
Layer1
 62
     7
370
    25
100
AcDbLine
 10
-32.55127968789783
 20
22.3643920107348
 30
0.0
 11
-32.55127968789783
 21
22.60964912715414
 31
0.0
  0
LINE
  5
337
330
1F
100
AcDbEntity
  8
Layer1
 62
     7
370
    25
100
AcDbLine
 10
-32.55127968789783
 20
22.3643920107348
 30
0.0
 11
-28.85127968789784
 21
22.3643920107348
 31
0.0
  0
LINE
  5
338
330
1F
100
AcDbEntity
  8
Layer1
 62
     7
370
    25
100
AcDbLine
 10
-28.85127968789784
 20
22.3643920107348
 30
0.0
 11
-28.85127968789784
 21
22.60964912715414
 31
0.0
  0
CIRCLE
  5
339
330
1F
100
AcDbEntity
  8
Layer1
 62
     7
370
    25
100
AcDbCircle
 10
-107.2580549973089
 20
29.43419505857972
 30
0.0
 40
0.1875000000000569
  0
LINE
  5
33A
330
1F
100
AcDbEntity
  8
Layer1
 62
     7
370
    25
100
AcDbLine
 10
-51.27669684856679
 20
34.06686066282606
 30
0.0
 11
-46.02669682416618
 21
34.06686066282606
 31
0.0
  0
ARC
  5
33B
330
1F
100
AcDbEntity
  8
Layer1
 62
     7
370
    25
100
AcDbCircle
 10
-51.27669683395928
 20
33.69186066282606
 30
0.0
 40
0.3750000000000003
100
AcDbArc
 50
90.00000223186284
 51
180.0000014787793
  0
CIRCLE
  5
33C
330
1F
100
AcDbEntity
  8
Layer1
 62
     7
370
    25
100
AcDbCircle
 10
-51.27669683395928
 20
31.19186066282606
 30
0.0
 40
0.1875
  0
CIRCLE
  5
33D
330
1F
100
AcDbEntity
  8
Layer1
 62
     7
370
    25
100
AcDbCircle
 10
-51.27669683395928
 20
27.94186066282606
 30
0.0
 40
0.1875
  0
CIRCLE
  5
33E
330
1F
100
AcDbEntity
  8
Layer1
 62
     7
370
    25
100
AcDbCircle
 10
-47.15169683395928
 20
33.69186066282606
 30
0.0
 40
0.1875
  0
CIRCLE
  5
33F
330
1F
100
AcDbEntity
  8
Layer1
 62
     7
370
    25
100
AcDbCircle
 10
-48.65169683346849
 20
31.44186066282606
 30
0.0
 40
0.5500000000000114
  0
LINE
  5
340
330
1F
100
AcDbEntity
  8
Layer1
 62
     7
370
    25
100
AcDbLine
 10
-46.02669683262494
 20
25.06686066282606
 30
0.0
 11
-51.27669683431199
 21
25.06686066282606
 31
0.0
  0
CIRCLE
  5
341
330
1F
100
AcDbEntity
  8
Layer1
 62
     7
370
    25
100
AcDbCircle
 10
-50.15169683395933
 20
25.44186066282606
 30
0.0
 40
0.1875
  0
CIRCLE
  5
342
330
1F
100
AcDbEntity
  8
Layer1
 62
     7
370
    25
100
AcDbCircle
 10
-47.15169683395933
 20
25.44186066282606
 30
0.0
 40
0.1875
  0
ARC
  5
343
330
1F
100
AcDbEntity
  8
Layer1
 62
     7
370
    25
100
AcDbCircle
 10
-51.27669683395928
 20
25.44186066282606
 30
0.0
 40
0.3750000000000578
100
AcDbArc
 50
179.9999958173804
 51
269.9999999461094
  0
CIRCLE
  5
344
330
1F
100
AcDbEntity
  8
Layer1
 62
     7
370
    25
100
AcDbCircle
 10
-48.65169683346849
 20
27.19186066282606
 30
0.0
 40
1.125000000000009
  0
LINE
  5
345
330
1F
100
AcDbEntity
  8
Layer1
 62
     7
370
    25
100
AcDbLine
 10
-51.65169683395933
 20
25.4418606903659
 30
0.0
 11
-51.65169683395933
 21
33.69186065484229
 31
0.0
  0
LINE
  5
346
330
1F
100
AcDbEntity
  8
Layer1
 62
     7
370
    25
100
AcDbLine
 10
-83.31092781103428
 20
37.83313708802277
 30
0.0
 11
-83.33893883315699
 21
37.87455426609714
 31
0.0
  0
ARC
  5
347
330
1F
100
AcDbEntity
  8
Layer1
 62
     7
370
    25
100
AcDbCircle
 10
-79.137285514756
 20
31.66197755494338
 30
0.0
 40
7.450000000000028
100
AcDbArc
 50
199.9279623062523
 51
268.0710441771571
  0
CIRCLE
  5
348
330
1F
100
AcDbEntity
  8
Layer1
 62
     7
370
    25
100
AcDbCircle
 10
-99.53135013796893
 20
31.94600039349925
 30
0.0
 40
8.499999999999913
  0
CIRCLE
  5
349
330
1F
100
AcDbEntity
  8
Layer1
 62
     7
370
    25
100
AcDbCircle
 10
60.05943862916632
 20
28.06002326944478
 30
0.0
 40
0.1875
210
0.0
220
0.0
230
-1.0
  0
CIRCLE
  5
34A
330
1F
100
AcDbEntity
  8
Layer1
 62
     7
370
    25
100
AcDbCircle
 10
60.05943862916632
 20
31.31002326944481
 30
0.0
 40
0.1875
210
0.0
220
0.0
230
-1.0
  0
CIRCLE
  5
34B
330
1F
100
AcDbEntity
  8
Layer1
 62
     7
370
    25
100
AcDbCircle
 10
-64.18443862916627
 20
33.81002326944481
 30
0.0
 40
0.1875
  0
ARC
  5
34C
330
1F
100
AcDbEntity
  8
Layer1
 62
     7
370
    25
100
AcDbCircle
 10
-79.137285514756
 20
31.66197755494338
 30
0.0
 40
7.449999999999991
100
AcDbArc
 50
343.9279623062522
 51
52.07104417715718
  0
LINE
  5
34D
330
1F
100
AcDbEntity
  8
Layer1
 62
     7
370
    25
100
AcDbLine
 10
-74.55789042571598
 20
37.53834042822444
 30
0.0
 11
-74.52715623048752
 21
37.57777910522634
 31
0.0
  0
LINE
  5
34E
330
1F
100
AcDbEntity
  8
Layer1
 62
     7
370
    25
100
AcDbLine
 10
-71.97847339269697
 20
29.59947688801972
 30
0.0
 11
-71.93042767375698
 21
29.58563460166454
 31
0.0
  0
ARC
  5
34F
330
1F
100
AcDbEntity
  8
Layer1
 62
     7
370
    25
100
AcDbCircle
 10
-79.137285514756
 20
31.66197755494338
 30
0.0
 40
7.500000000000007
100
AcDbArc
 50
340.0710441771568
 51
343.9279623062522
  0
LINE
  5
350
330
1F
100
AcDbEntity
  8
Layer1
 62
     7
370
    25
100
AcDbLine
 10
-64.73443862916628
 20
33.2350232694448
 30
0.0
 11
-60.63443862916631
 21
33.2350232694448
 31
0.0
  0
CIRCLE
  5
351
330
1F
100
AcDbEntity
  8
Layer1
 62
     7
370
    25
100
AcDbCircle
 10
-65.30943862916627
 20
28.06002326944478
 30
0.0
 40
0.1875
  0
ARC
  5
352
330
1F
100
AcDbEntity
  8
Layer1
 62
     7
370
    25
100
AcDbCircle
 10
-99.53083019910477
 20
31.94510581644354
 30
0.0
 40
7.500000000000007
100
AcDbArc
 50
124.1024418892982
 51
127.8975581107021
  0
ARC
  5
353
330
1F
100
AcDbEntity
  8
Layer1
 62
     7
370
    25
100
AcDbCircle
 10
-99.53135013796893
 20
31.94600039349925
 30
0.0
 40
7.54999999999994
100
AcDbArc
 50
127.8986217136388
 51
196.1052493834959
  0
CIRCLE
  5
354
330
1F
100
AcDbEntity
  8
Layer1
 62
     7
370
    25
100
AcDbCircle
 10
-91.80376765859819
 20
34.45725456654023
 30
0.0
 40
0.1875000000000569
  0
CIRCLE
  5
355
330
1F
100
AcDbEntity
  8
Layer1
 62
     7
370
    25
100
AcDbCircle
 10
-91.80328063138495
 20
29.43569397421609
 30
0.0
 40
0.1875000000000569
  0
LINE
  5
356
330
1F
100
AcDbEntity
  8
Layer1
 62
     7
370
    25
100
AcDbLine
 10
-94.89351828038286
 20
37.90360189584558
 30
0.0
 11
-94.92474572222943
 21
37.86348292566262
 31
0.0
  0
ARC
  5
357
330
1F
100
AcDbEntity
  8
Layer1
 62
     7
370
    25
100
AcDbCircle
 10
-99.53163249392921
 20
31.94515594308228
 30
0.0
 40
7.50000000000006
100
AcDbArc
 50
52.10244188929823
 51
55.89755811070142
  0
LINE
  5
358
330
1F
100
AcDbEntity
  8
Layer1
 62
     7
370
    25
100
AcDbLine
 10
-92.43211841030296
 20
29.37621729340415
 30
0.0
 11
-92.4795629974331
 21
29.39338839261234
 31
0.0
  0
LINE
  5
359
330
1F
100
AcDbEntity
  8
Layer1
 62
     7
370
    25
100
AcDbLine
 10
-92.2775827176535
 20
29.85176930680248
 30
0.0
 11
-92.32607773532635
 21
29.86576745699736
 31
0.0
  0
ARC
  5
35A
330
1F
100
AcDbEntity
  8
Layer1
 62
     7
370
    25
100
AcDbCircle
 10
-99.53183274339787
 20
31.94593446078622
 30
0.0
 40
7.499999999999991
100
AcDbArc
 50
340.1024418892981
 51
343.8975581107018
  0
CIRCLE
  5
35B
330
1F
100
AcDbEntity
  8
Layer1
 62
     7
370
    25
100
AcDbCircle
 10
-94.75576093155166
 20
38.51949615660052
 30
0.0
 40
0.1874999999999871
  0
LINE
  5
35C
330
1F
100
AcDbEntity
  8
Layer1
 62
     7
370
    25
100
AcDbLine
 10
-95.29805949359331
 20
38.19754022943098
 30
0.0
 11
-95.32657535519706
 21
38.15542924302642
 31
0.0
  0
ARC
  5
35D
330
1F
100
AcDbEntity
  8
Layer1
 62
     7
370
    25
100
AcDbCircle
 10
-99.53135013796893
 20
31.94600039349925
 30
0.0
 40
7.549999999999951
100
AcDbArc
 50
343.8960722085212
 51
52.1002058399685
  0
ARC
  5
35E
330
1F
100
AcDbEntity
  8
Layer1
 62
     7
370
    25
100
AcDbCircle
 10
-99.53115420955154
 20
31.94636548454935
 30
0.0
 40
7.500000000000027
100
AcDbArc
 50
268.1024418892986
 51
271.8975581107023
  0
CIRCLE
  5
35F
330
1F
100
AcDbEntity
  8
Layer1
 62
     7
370
    25
100
AcDbCircle
 10
-94.75448587775384
 20
25.372879849329
 30
0.0
 40
0.1874999999999871
  0
LINE
  5
360
330
1F
100
AcDbEntity
  8
Layer1
 62
     7
370
    25
100
AcDbLine
 10
-17.56987841309548
 20
60.51738915346569
 30
0.0
 11
-18.62584403893787
 21
59.21108268742923
 31
0.0
  0
ARC
  5
361
330
1F
100
AcDbEntity
  8
Layer1
 62
     7
370
    25
100
AcDbCircle
 10
-15.6256599682054
 20
58.94576113177952
 30
0.0
 40
2.499999999999989
100
AcDbArc
 50
218.9493632450358
 51
321.0506422442427
  0
LINE
  5
362
330
1F
100
AcDbEntity
  8
Layer1
 62
     7
370
    25
100
AcDbLine
 10
-17.56991458071638
 20
57.37417785313038
 30
0.0
 11
-18.6258501440323
 21
58.68050861993261
 31
0.0
  0
ARC
  5
363
330
1F
100
AcDbEntity
  8
Layer1
 62
     7
370
    25
100
AcDbCircle
 10
-99.53135013796893
 20
31.94600039349925
 30
0.0
 40
7.549999999999989
100
AcDbArc
 50
271.8991465026453
 51
340.1007343166514
  0
LINE
  5
364
330
1F
100
AcDbEntity
  8
Layer1
 62
     7
370
    25
100
AcDbLine
 10
-86.29613339978022
 20
29.5996010231033
 30
0.0
 11
-86.34417935874012
 21
29.58575956986948
 31
0.0
  0
LINE
  5
365
330
1F
100
AcDbEntity
  8
Layer1
 62
     7
370
    25
100
AcDbLine
 10
-86.14119365590028
 20
29.12273145611536
 30
0.0
 11
-86.18819975080731
 21
29.105689535989
 31
0.0
  0
ARC
  5
366
330
1F
100
AcDbEntity
  8
Layer1
 62
     7
370
    25
100
AcDbCircle
 10
-79.137285514756
 20
31.66197755494338
 30
0.0
 40
7.500000000000033
100
AcDbArc
 50
196.0710441771571
 51
199.9279623062524
  0
CIRCLE
  5
367
330
1F
100
AcDbEntity
  8
Layer1
 62
     7
370
    25
100
AcDbCircle
 10
-50.15169683395928
 20
33.69186066282606
 30
0.0
 40
0.1875
  0
LINE
  5
368
330
1F
100
AcDbEntity
  8
Layer1
 62
     7
370
    25
100
AcDbLine
 10
-106.6304925275589
 20
29.37604371442333
 30
0.0
 11
-106.5828043490679
 21
29.39330728600711
 31
0.0
  0
CIRCLE
  5
369
330
1F
100
AcDbEntity
  8
Layer1
 62
     7
370
    25
100
AcDbCircle
 10
-104.3073367781531
 20
38.51856977579101
 30
0.0
 40
0.1874999999999871
  0
CIRCLE
  5
36A
330
1F
100
AcDbEntity
  8
Layer1
 62
     7
370
    25
100
AcDbCircle
 10
-107.2585420245222
 20
34.45575565090385
 30
0.0
 40
0.1875000000000028
  0
ARC
  5
36B
330
1F
100
AcDbEntity
  8
Layer1
 62
     7
370
    25
100
AcDbCircle
 10
-18.29765996544039
 20
58.94579187736859
 30
0.0
 40
0.4220000000000057
100
AcDbArc
 50
141.0493160563416
 51
218.9493581364862
  0
CIRCLE
  5
36C
330
1F
100
AcDbEntity
  8
Layer1
 62
     7
370
     9
100
AcDbCircle
 10
18.29765996544039
 20
58.94579187736859
 30
0.0
 40
0.187499999999959
210
0.0
220
0.0
230
-1.0
  0
CIRCLE
  5
36D
330
1F
100
AcDbEntity
  8
Layer1
 62
     7
370
     9
100
AcDbCircle
 10
-12.95365997097032
 20
58.94579197234522
 30
0.0
 40
0.1874999999999874
  0
MTEXT
  5
36E
330
1F
100
AcDbEntity
  8
Layer1
 62
     7
370
    25
100
AcDbMText
 10
-19.80806776053495
 20
52.84563486291099
 30
0.0
 40
1.333333373069763
 41
9.205395548271637
 71
     1
 72
     1
  1
{\C7;\l\fPlotter|b0|i0|c00|p34;SM1006\P}
 73
     1
 44
1.0
  0
ARC
  5
36F
330
1F
100
AcDbEntity
  8
Layer1
 62
     7
370
    25
100
AcDbCircle
 10
-12.95365997097032
 20
58.94579197234522
 30
0.0
 40
0.4219999999999908
100
AcDbArc
 50
321.0506440753313
 51
38.95067870853934
  0
ARC
  5
370
330
1F
100
AcDbEntity
  8
Layer1
 62
     7
370
    25
100
AcDbCircle
 10
-15.6256599682054
 20
58.94576113177952
 30
0.0
 40
2.500000000000019
100
AcDbArc
 50
38.95068328274092
 51
141.0493191247018
  0
ARC
  5
371
330
1F
100
AcDbEntity
  8
Layer1
 62
     7
370
    25
100
AcDbCircle
 10
-99.53053460310318
 20
31.94585335418097
 30
0.0
 40
7.499999999999899
100
AcDbArc
 50
196.1024418892984
 51
199.8975581107019
  0
LINE
  5
372
330
1F
100
AcDbEntity
  8
Layer1
 62
     7
370
    25
100
AcDbLine
 10
-106.7850408963118
 20
29.85161017619697
 30
0.0
 11
-106.7362896111746
 21
29.86568635039211
 31
0.0
  0
LINE
  5
373
330
1F
100
AcDbEntity
  8
Layer1
 62
     7
370
    25
100
AcDbLine
 10
-104.1690600838874
 20
37.90369679878276
 30
0.0
 11
-104.1377169708046
 21
37.86343279902385
 31
0.0
  0
CIRCLE
  5
374
330
1F
100
AcDbEntity
  8
Layer1
 62
     7
370
    25
100
AcDbCircle
 10
-104.3060617243554
 20
25.37195346851942
 30
0.0
 40
0.187500000000054
  0
CIRCLE
  5
375
330
1F
100
AcDbEntity
  8
Layer1
 62
     7
370
    25
100
AcDbCircle
 10
-46.02669683395928
 20
27.94186066282606
 30
0.0
 40
0.1875
  0
ARC
  5
376
330
1F
100
AcDbEntity
  8
Layer1
 62
     7
370
    25
100
AcDbCircle
 10
-46.02669683395928
 20
33.69186066282606
 30
0.0
 40
0.3750000000000004
100
AcDbArc
 50
0.0000024148365395
 51
90.00000237295123
  0
CIRCLE
  5
377
330
1F
100
AcDbEntity
  8
Layer1
 62
     7
370
    25
100
AcDbCircle
 10
-46.02669683395928
 20
31.19186066282606
 30
0.0
 40
0.1875
  0
ARC
  5
378
330
1F
100
AcDbEntity
  8
Layer1
 62
     7
370
    25
100
AcDbCircle
 10
-46.02669683395928
 20
25.44186066282606
 30
0.0
 40
0.375
100
AcDbArc
 50
270.0000000538212
 51
0.0000017075472925
  0
MTEXT
  5
379
330
1F
100
AcDbEntity
  8
Layer1
 62
     7
370
    25
100
AcDbMText
 10
-52.15968045850656
 20
20.4080810144349
 30
0.0
 40
1.333333373069763
 41
9.205395548271637
 71
     1
 72
     1
  1
{\C7;\l\fPlotter|b0|i0|c00|p34;SM1010\P}
 73
     1
 44
1.0
  0
ARC
  5
37A
330
1F
100
AcDbEntity
  8
Layer1
 62
     7
370
    25
100
AcDbCircle
 10
-79.137285514756
 20
31.66197755494338
 30
0.0
 40
7.449999999999968
100
AcDbArc
 50
127.9279623062519
 51
196.0710441771571
  0
MTEXT
  5
37B
330
1F
100
AcDbEntity
  8
Layer1
 62
     7
370
    25
100
AcDbMText
 10
-20.15638850342251
 20
20.26748429916929
 30
0.0
 40
1.333333373069763
 41
9.205395548271637
 71
     1
 72
     1
  1
{\C7;\l\fPlotter|b0|i0|c00|p34;SM1012\P}
 73
     1
 44
1.0
  0
ARC
  5
37C
330
1F
100
AcDbEntity
  8
Layer1
 62
     7
370
    25
100
AcDbCircle
 10
-14.08770682046682
 20
28.0757408286325
 30
0.0
 40
0.2499999999999645
100
AcDbArc
 50
0.0
 51
90.0000000000179
  0
CIRCLE
  5
37D
330
1F
100
AcDbEntity
  8
Layer1
 62
     7
370
    25
100
AcDbCircle
 10
-14.26253106350947
 20
27.90091658558987
 30
0.0
 40
0.1874999999999965
  0
LINE
  5
37E
330
1F
100
AcDbEntity
  8
Layer1
 62
     7
370
    25
100
AcDbLine
 10
-16.9377068204668
 20
27.42574082863256
 30
0.0
 11
-16.93770682046683
 21
25.2257408286325
 31
0.0
  0
ARC
  5
37F
330
1F
100
AcDbEntity
  8
Layer1
 62
     7
370
    25
100
AcDbCircle
 10
17.58770682046685
 20
28.07574082863255
 30
0.0
 40
0.2499999999999574
210
0.0
220
0.0
230
-1.0
100
AcDbArc
 50
0.0
 51
90.00000000000162
  0
LINE
  5
380
330
1F
100
AcDbEntity
  8
Layer1
 62
     7
370
    25
100
AcDbLine
 10
-17.58770682046685
 20
28.3257408286325
 30
0.0
 11
-14.0877068204669
 21
28.32574082863248
 31
0.0
  0
LINE
  5
381
330
1F
100
AcDbEntity
  8
Layer1
 62
     7
370
    25
100
AcDbLine
 10
-14.73770682046682
 20
27.42574082863253
 30
0.0
 11
-14.73770682046684
 21
25.22574082863247
 31
0.0
  0
ARC
  5
382
330
1F
100
AcDbEntity
  8
Layer1
 62
     7
370
    25
100
AcDbCircle
 10
17.58770682046691
 20
24.57574082863246
 30
0.0
 40
0.2499999999999858
210
0.0
220
0.0
230
-1.0
100
AcDbArc
 50
269.9999999999968
 51
0.0
  0
LINE
  5
383
330
1F
100
AcDbEntity
  8
Layer1
 62
     7
370
    25
100
AcDbLine
 10
-14.08770682046682
 20
24.32574082863248
 30
0.0
 11
-17.5877068204669
 21
24.32574082863248
 31
0.0
  0
LINE
  5
384
330
1F
100
AcDbEntity
  8
Layer1
 62
     7
370
    25
100
AcDbLine
 10
-16.93770682046683
 20
25.2257408286325
 30
0.0
 11
-14.73770682046684
 21
25.22574082863247
 31
0.0
  0
LINE
  5
385
330
1F
100
AcDbEntity
  8
Layer1
 62
     7
370
    25
100
AcDbLine
 10
-16.9377068204668
 20
27.42574082863256
 30
0.0
 11
-14.73770682046682
 21
27.42574082863253
 31
0.0
  0
ARC
  5
386
330
1F
100
AcDbEntity
  8
Layer1
 62
     7
370
    25
100
AcDbCircle
 10
-14.08770682046686
 20
24.57574082863248
 30
0.0
 40
0.25
100
AcDbArc
 50
270.0000000000098
 51
0.0
  0
LINE
  5
387
330
1F
100
AcDbEntity
  8
Layer1
 62
     7
370
    25
100
AcDbLine
 10
-17.8377068204669
 20
24.57574082863248
 30
0.0
 11
-17.83770682046681
 21
28.07574082863255
 31
0.0
  0
LINE
  5
388
330
1F
100
AcDbEntity
  8
Layer1
 62
     7
370
    25
100
AcDbLine
 10
-13.83770682046686
 20
28.0757408286325
 30
0.0
 11
-13.83770682046682
 21
24.57574082863248
 31
0.0
  0
CIRCLE
  5
389
330
1F
100
AcDbEntity
  8
Layer1
 62
     7
370
    25
100
AcDbCircle
 10
-17.41288257742417
 20
27.90091658558985
 30
0.0
 40
0.1875000000000066
  0
CIRCLE
  5
38A
330
1F
100
AcDbEntity
  8
Layer1
 62
     7
370
    25
100
AcDbCircle
 10
-17.4128825774242
 20
24.75056507167513
 30
0.0
 40
0.1874999999999965
  0
CIRCLE
  5
38B
330
1F
100
AcDbEntity
  8
Layer1
 62
     7
370
    25
100
AcDbCircle
 10
-14.26253106350942
 20
24.75056507167513
 30
0.0
 40
0.1874999999999965
  0
CIRCLE
  5
38C
330
1F
100
AcDbEntity
  8
Layer1
 62
     7
370
    25
100
AcDbCircle
 10
-32.01632758490283
 20
62.50386882478315
 30
0.0
 40
1.125000000000006
  0
CIRCLE
  5
38D
330
1F
100
AcDbEntity
  8
Layer1
 62
     7
370
    25
100
AcDbCircle
 10
-32.91101909993459
 20
57.14528024289257
 30
0.0
 40
0.1874999999999819
  0
CIRCLE
  5
38E
330
1F
100
AcDbEntity
  8
Layer1
 62
     7
370
    25
100
AcDbCircle
 10
-32.91022015259374
 20
67.8639873100189
 30
0.0
 40
0.1875000000000055
  0
CIRCLE
  5
38F
330
1F
100
AcDbEntity
  8
Layer1
 62
     7
370
    25
100
AcDbCircle
 10
-29.01632758490283
 20
62.50386882478313
 30
0.0
 40
1.125
  0
CIRCLE
  5
390
330
1F
100
AcDbEntity
  8
Layer1
 62
     7
370
    25
100
AcDbCircle
 10
-29.01632758490283
 20
62.50386882478315
 30
0.0
 40
6.999999999999961
  0
CIRCLE
  5
391
330
1F
100
AcDbEntity
  8
Layer1
 62
     7
370
    25
100
AcDbCircle
 10
-35.31727188457916
 20
60.45772225921539
 30
0.0
 40
0.187500000000007
  0
CIRCLE
  5
392
330
1F
100
AcDbEntity
  8
Layer1
 62
     7
370
    25
100
AcDbCircle
 10
-35.31696671385015
 20
64.55190404340391
 30
0.0
 40
0.187500000000007
  0
CIRCLE
  5
393
330
1F
100
AcDbEntity
  8
Layer1
 62
     7
370
    25
100
AcDbCircle
 10
-29.01731513812658
 20
55.87981825890753
 30
0.0
 40
0.1874999999999965
  0
CIRCLE
  5
394
330
1F
100
AcDbEntity
  8
Layer1
 62
     7
370
    25
100
AcDbCircle
 10
-22.71667600917916
 20
60.45678304028669
 30
0.0
 40
0.1875000000000002
  0
CIRCLE
  5
395
330
1F
100
AcDbEntity
  8
Layer1
 62
     7
370
    25
100
AcDbCircle
 10
-22.71637083845021
 20
64.55096482447527
 30
0.0
 40
0.1874999999999779
  0
CIRCLE
  5
396
330
1F
100
AcDbEntity
  8
Layer1
 62
     7
370
    25
100
AcDbCircle
 10
-25.12262362309475
 20
67.86340684079812
 30
0.0
 40
0.187499999999973
  0
CIRCLE
  5
397
330
1F
100
AcDbEntity
  8
Layer1
 62
     7
370
    25
100
AcDbCircle
 10
-29.01632758490283
 20
69.12886882478313
 30
0.0
 40
0.1874999999999814
  0
CIRCLE
  5
398
330
1F
100
AcDbEntity
  8
Layer1
 62
     7
370
    25
100
AcDbCircle
 10
-25.26719545239895
 20
65.1750941530876
 30
0.0
 40
0.187499999999988
  0
CIRCLE
  5
399
330
1F
100
AcDbEntity
  8
Layer1
 62
     7
370
    25
100
AcDbCircle
 10
-25.26716461183322
 20
62.50320315329191
 30
0.0
 40
1.999999999999996
  0
CIRCLE
  5
39A
330
1F
100
AcDbEntity
  8
Layer1
 62
     7
370
    25
100
AcDbCircle
 10
-25.26716461183322
 20
59.83109415585253
 30
0.0
 40
0.1874999999999915
  0
CIRCLE
  5
39B
330
1F
100
AcDbEntity
  8
Layer1
 62
     7
370
    25
100
AcDbCircle
 10
-25.12342257043566
 20
57.14469977367179
 30
0.0
 40
0.1874999999999966
  0
ARC
  5
39C
330
1F
100
AcDbEntity
  8
Layer1
 62
     7
370
    25
100
AcDbCircle
 10
-99.53135013796893
 20
31.94600039349925
 30
0.0
 40
7.549999999999968
100
AcDbArc
 50
55.89572702914369
 51
124.1029904736509
  0
MTEXT
  5
39D
330
1F
100
AcDbEntity
  8
Layer1
 62
     7
370
    25
100
AcDbMText
 10
-103.1714627913636
 20
20.51578320076778
 30
0.0
 40
1.333333373069763
 41
9.205395548271637
 71
     1
 72
     1
  1
{\C7;\l\fPlotter|b0|i0|c00|p34;SM1007\P}
 73
     1
 44
1.0
  0
ARC
  5
39E
330
1F
100
AcDbEntity
  8
Layer1
 62
     7
370
    25
100
AcDbCircle
 10
-99.53135013796893
 20
31.94600039349925
 30
0.0
 40
7.549999999999968
100
AcDbArc
 50
199.9007350464109
 51
268.1038455668848
  0
CIRCLE
  5
39F
330
1F
100
AcDbEntity
  8
Layer1
 62
     7
370
    25
100
AcDbCircle
 10
-94.35467608202833
 20
64.72892307316708
 30
0.0
 40
0.1875000000000318
  0
CIRCLE
  5
3A0
330
1F
100
AcDbEntity
  8
Layer1
 62
     7
370
    25
100
AcDbCircle
 10
-106.9555771281572
 20
60.63568050790717
 30
0.0
 40
0.1874999999999558
  0
CIRCLE
  5
3A1
330
1F
100
AcDbEntity
  8
Layer1
 62
     7
370
    25
100
AcDbCircle
 10
-100.6546328284809
 20
69.30682707347493
 30
0.0
 40
0.1875000000000317
  0
CIRCLE
  5
3A2
330
1F
100
AcDbEntity
  8
Layer1
 62
     7
370
    25
100
AcDbCircle
 10
-106.9552719574282
 20
64.72986229209572
 30
0.0
 40
0.1874999999999812
  0
CIRCLE
  5
3A3
330
1F
100
AcDbEntity
  8
Layer1
 62
     7
370
    25
100
AcDbCircle
 10
-100.6556203817046
 20
56.05777650759929
 30
0.0
 40
0.1875000000000116
  0
CIRCLE
  5
3A4
330
1F
100
AcDbEntity
  8
Layer1
 62
     7
370
    25
100
AcDbCircle
 10
-104.5493243435126
 20
57.32323849158432
 30
0.0
 40
0.1874999999999952
  0
CIRCLE
  5
3A5
330
1F
100
AcDbEntity
  8
Layer1
 62
     7
370
    25
100
AcDbCircle
 10
-104.5485253961718
 20
68.04194555871068
 30
0.0
 40
0.1874999999999213
  0
CIRCLE
  5
3A6
330
1F
100
AcDbEntity
  8
Layer1
 62
     7
370
    25
100
AcDbCircle
 10
-94.35498125275723
 20
60.63474128897847
 30
0.0
 40
0.1874999999999812
  0
CIRCLE
  5
3A7
330
1F
100
AcDbEntity
  8
Layer1
 62
     7
370
    25
100
AcDbCircle
 10
-96.76092886667283
 20
68.0413650894899
 30
0.0
 40
0.1874999999999877
  0
CIRCLE
  5
3A8
330
1F
100
AcDbEntity
  8
Layer1
 62
     7
370
    25
100
AcDbCircle
 10
-100.6546328284809
 20
62.68182707347493
 30
0.0
 40
6.999999999999981
  0
ARC
  5
3A9
330
1F
100
AcDbEntity
  8
Layer1
 62
     7
370
    25
100
AcDbCircle
 10
100.654566835527
 20
62.68195068992632
 30
0.0
 40
6.000043109004884
210
0.0
220
0.0
230
-1.0
100
AcDbArc
 50
123.6167003127205
 51
128.3938414472858
  0
LINE
  5
3AA
330
1F
100
AcDbEntity
  8
Layer1
 62
     7
370
    25
100
AcDbLine
 10
-96.92815882320969
 20
67.38454578579136
 30
0.0
 11
-96.89713241965018
 21
67.42370000957452
 31
0.0
  0
LINE
  5
3AB
330
1F
100
AcDbEntity
  8
Layer1
 62
     7
370
    25
100
AcDbLine
 10
-97.33273715798265
 20
67.67854602107955
 30
0.0
 11
-97.30507930951552
 21
67.7201481168929
 31
0.0
  0
LINE
  5
3AC
330
1F
100
AcDbEntity
  8
Layer1
 62
     7
370
    25
100
AcDbLine
 10
-103.9757109188586
 20
67.67890058848364
 30
0.0
 11
-104.0033423142429
 21
67.72054166947724
 31
0.0
  0
ARC
  5
3AD
330
1F
100
AcDbEntity
  8
Layer1
 62
     7
370
    25
100
AcDbCircle
 10
100.6548006132195
 20
62.68169416370823
 30
0.0
 40
6.000043109004879
210
0.0
220
0.0
230
-1.0
100
AcDbArc
 50
51.61670031271981
 51
56.39384144728505
  0
LINE
  5
3AE
330
1F
100
AcDbEntity
  8
Layer1
 62
     7
370
    25
100
AcDbLine
 10
-104.3803433394225
 20
67.38497479590028
 30
0.0
 11
-104.411362538533
 21
67.42413472751961
 31
0.0
  0
ARC
  5
3AF
330
1F
100
AcDbEntity
  8
Layer1
 62
     7
370
    25
100
AcDbCircle
 10
-100.6546328284809
 20
62.68182707347493
 30
0.0
 40
6.050000000000065
100
AcDbArc
 50
272.3914805517801
 51
339.6104951882756
  0
ARC
  5
3B0
330
1F
100
AcDbEntity
  8
Layer1
 62
     7
370
    25
100
AcDbCircle
 10
-100.6546328284809
 20
62.68182707347493
 30
0.0
 40
6.049999999999917
100
AcDbArc
 50
200.3902286259413
 51
267.6144617771398
  0
LINE
  5
3B1
330
1F
100
AcDbEntity
  8
Layer1
 62
     7
370
    25
100
AcDbLine
 10
-100.4042534027525
 20
56.68681895398431
 30
0.0
 11
-100.4021759738067
 21
56.63690527603053
 31
0.0
  0
LINE
  5
3B2
330
1F
100
AcDbEntity
  8
Layer1
 62
     7
370
    25
100
AcDbLine
 10
-100.9043731536126
 20
56.6868649621061
 30
0.0
 11
-100.906459766062
 21
56.63695166722
 31
0.0
  0
ARC
  5
3B3
330
1F
100
AcDbEntity
  8
Layer1
 62
     7
370
    25
100
AcDbCircle
 10
100.6537617885254
 20
62.68167198598989
 30
0.0
 40
6.000043109004923
210
0.0
220
0.0
230
-1.0
100
AcDbArc
 50
267.6167003127202
 51
272.3938414472852
  0
ARC
  5
3B4
330
1F
100
AcDbEntity
  8
Layer1
 62
     7
370
    25
100
AcDbCircle
 10
-100.6546328284809
 20
62.68182707347493
 30
0.0
 40
6.049999999999925
100
AcDbArc
 50
128.3853268064326
 51
195.6130900626287
  0
LINE
  5
3B5
330
1F
100
AcDbEntity
  8
Layer1
 62
     7
370
    25
100
AcDbLine
 10
-106.4332531164875
 20
61.06697780129291
 30
0.0
 11
-106.4814290720521
 21
61.05352125067814
 31
0.0
  0
ARC
  5
3B6
330
1F
100
AcDbEntity
  8
Layer1
 62
     7
370
    25
100
AcDbCircle
 10
100.6544096616954
 20
62.68112947784742
 30
0.0
 40
6.000043109004891
210
0.0
220
0.0
230
-1.0
100
AcDbArc
 50
339.6167003127199
 51
344.3938414472849
  0
LINE
  5
3B7
330
1F
100
AcDbEntity
  8
Layer1
 62
     7
370
    25
100
AcDbLine
 10
-106.2787513705731
 20
60.59132143601794
 30
0.0
 11
-106.3255801383945
 21
60.57392150894246
 31
0.0
  0
ARC
  5
3B8
330
1F
100
AcDbEntity
  8
Layer1
 62
     7
370
    25
100
AcDbCircle
 10
-100.6546328284809
 20
62.68182707347493
 30
0.0
 40
6.050000000000006
100
AcDbArc
 50
56.3834273671054
 51
123.6078526771751
  0
ARC
  5
3B9
330
1F
100
AcDbEntity
  8
Layer1
 62
     7
370
    25
100
AcDbCircle
 10
-100.6546328284809
 20
62.68182707347493
 30
0.0
 40
6.049999999999982
100
AcDbArc
 50
344.387276108016
 51
51.60639579530294
  0
LINE
  5
3BA
330
1F
100
AcDbEntity
  8
Layer1
 62
     7
370
    25
100
AcDbLine
 10
-94.87551669513147
 20
61.06688889888964
 30
0.0
 11
-94.82740400561244
 21
61.05344047648616
 31
0.0
  0
LINE
  5
3BB
330
1F
100
AcDbEntity
  8
Layer1
 62
     7
370
    25
100
AcDbLine
 10
-95.03010595369386
 20
60.59126096819772
 30
0.0
 11
-94.98328038805022
 21
60.57385242546574
 31
0.0
  0
ARC
  5
3BC
330
1F
100
AcDbEntity
  8
Layer1
 62
     7
370
    25
100
AcDbCircle
 10
100.6540630668949
 20
62.68210378839994
 30
0.0
 40
6.000043109004817
210
0.0
220
0.0
230
-1.0
100
AcDbArc
 50
195.61670031272
 51
200.3938414472851
  0
CIRCLE
  5
3BD
330
1F
100
AcDbEntity
  8
Layer1
 62
     7
370
    25
100
AcDbCircle
 10
-96.7617278140138
 20
57.32265802236354
 30
0.0
 40
0.1874999999999124
  0
MTEXT
  5
3BE
330
1F
100
AcDbEntity
  8
Layer1
 62
     7
370
    25
100
AcDbMText
 10
-105.2259947166163
 20
53.07087950421666
 30
0.0
 40
1.333333373069763
 41
9.205395548271637
 71
     1
 72
     1
  1
{\C7;\l\fPlotter|b0|i0|c00|p34;SM1001\P}
 73
     1
 44
1.0
  0
LINE
  5
3BF
330
1F
100
AcDbEntity
  8
Layer1
 62
     7
370
    25
100
AcDbLine
 10
-103.7645008480737
 20
38.19763498499125
 30
0.0
 11
-103.7358873378368
 21
38.15537911638765
 31
0.0
  0
LINE
  5
3C0
330
1F
100
AcDbEntity
  8
Layer1
 62
     7
370
    25
100
AcDbLine
 10
-53.17198334155903
 20
-23.35328100415548
 30
0.0
 11
-51.17198334155908
 21
-23.35328100415446
 31
0.0
  0
LINE
  5
3C1
330
1F
100
AcDbEntity
  8
Layer1
 62
     7
370
    25
100
AcDbLine
 10
-51.17198334155908
 20
-23.35328100415548
 30
0.0
 11
-51.17198334155908
 21
-23.40328100415548
 31
0.0
  0
LINE
  5
3C2
330
1F
100
AcDbEntity
  8
Layer1
 62
     7
370
    25
100
AcDbLine
 10
-51.17198334155908
 20
-23.40328100415548
 30
0.0
 11
-53.17198334155903
 21
-23.40328100415548
 31
0.0
  0
LINE
  5
3C3
330
1F
100
AcDbEntity
  8
Layer1
 62
     7
370
    25
100
AcDbLine
 10
-53.17198334155903
 20
-23.40328100415548
 30
0.0
 11
-53.17198334155903
 21
-23.35328100415548
 31
0.0
  0
MTEXT
  5
3C4
330
1F
100
AcDbEntity
  8
Layer1
 62
     7
370
    25
100
AcDbMText
 10
-72.73386190911314
 20
-33.56201124231043
 30
0.0
 40
1.333333373069763
 41
11.71431394428127
 71
     1
 72
     1
  1
{\C7;\l\fPlotter|b0|i0|c00|p34;SM1018-b\P}
 73
     1
 44
1.0
  0
LINE
  5
3C5
330
1F
100
AcDbEntity
  8
Layer1
 62
     7
370
    25
100
AcDbLine
 10
-68.05155031561769
 20
-27.68766241724872
 30
0.0
 11
-68.03841273312801
 21
-27.63941924232907
 31
0.0
  0
LINE
  5
3C6
330
1F
100
AcDbEntity
  8
Layer1
 62
     7
370
    25
100
AcDbLine
 10
-68.03841273312801
 20
-27.63941924232907
 30
0.0
 11
-68.40023654502532
 21
-27.54088737365651
 31
0.0
  0
LINE
  5
3C7
330
1F
100
AcDbEntity
  8
Layer1
 62
     7
370
    25
100
AcDbLine
 10
-68.40023654502532
 20
-27.54088737365651
 30
0.0
 11
-68.41337412751501
 21
-27.58913054857616
 31
0.0
  0
LINE
  5
3C8
330
1F
100
AcDbEntity
  8
Layer1
 62
     7
370
    25
100
AcDbLine
 10
-68.41337412751501
 20
-27.58913054857616
 30
0.0
 11
-68.05155031561769
 21
-27.68766241724872
 31
0.0
  0
LINE
  5
3C9
330
1F
100
AcDbEntity
  8
Layer1
 62
     7
370
    25
100
AcDbLine
 10
-77.946543524412
 20
-24.99305764192218
 30
0.0
 11
-77.93340594192232
 21
-24.94481446700253
 31
0.0
  0
LINE
  5
3CA
330
1F
100
AcDbEntity
  8
Layer1
 62
     7
370
    25
100
AcDbLine
 10
-77.93340594192232
 20
-24.94481446700253
 30
0.0
 11
-78.29522975381963
 21
-24.84628259832998
 31
0.0
  0
LINE
  5
3CB
330
1F
100
AcDbEntity
  8
Layer1
 62
     7
370
    25
100
AcDbLine
 10
-78.29522975381963
 20
-24.84628259832998
 30
0.0
 11
-78.30836733630932
 21
-24.89452577324963
 31
0.0
  0
LINE
  5
3CC
330
1F
100
AcDbEntity
  8
Layer1
 62
     7
370
    25
100
AcDbLine
 10
-78.30836733630932
 20
-24.89452577324963
 30
0.0
 11
-77.946543524412
 21
-24.99305764192218
 31
0.0
  0
LINE
  5
3CD
330
1F
100
AcDbEntity
  8
Layer1
 62
     7
370
    25
100
AcDbLine
 10
-71.99917739403026
 20
-26.56082371992619
 30
0.0
 11
-70.0694503972445
 21
-27.08632701951242
 31
0.0
  0
LINE
  5
3CE
330
1F
100
AcDbEntity
  8
Layer1
 62
     7
370
    25
100
AcDbLine
 10
-70.06945039724476
 20
-27.08632701951341
 30
0.0
 11
-70.08258797973444
 21
-27.13457019443305
 31
0.0
  0
LINE
  5
3CF
330
1F
100
AcDbEntity
  8
Layer1
 62
     7
370
    25
100
AcDbLine
 10
-70.08258797973444
 20
-27.13457019443305
 30
0.0
 11
-72.01231497651993
 21
-26.60906689484583
 31
0.0
  0
LINE
  5
3D0
330
1F
100
AcDbEntity
  8
Layer1
 62
     7
370
    25
100
AcDbLine
 10
-72.01231497651993
 20
-26.60906689484583
 30
0.0
 11
-71.99917739403026
 21
-26.56082371992619
 31
0.0
  0
LINE
  5
3D1
330
1F
100
AcDbEntity
  8
Layer1
 62
     7
370
    25
100
AcDbLine
 10
-76.02297621510455
 20
-25.46506273359392
 30
0.0
 11
-74.09324921831879
 21
-25.99056603318015
 31
0.0
  0
LINE
  5
3D2
330
1F
100
AcDbEntity
  8
Layer1
 62
     7
370
    25
100
AcDbLine
 10
-74.09324921831906
 20
-25.99056603318114
 30
0.0
 11
-74.10638680080874
 21
-26.03880920810078
 31
0.0
  0
LINE
  5
3D3
330
1F
100
AcDbEntity
  8
Layer1
 62
     7
370
    25
100
AcDbLine
 10
-74.10638680080874
 20
-26.03880920810078
 30
0.0
 11
-76.03611379759423
 21
-25.51330590851356
 31
0.0
  0
LINE
  5
3D4
330
1F
100
AcDbEntity
  8
Layer1
 62
     7
370
    25
100
AcDbLine
 10
-76.03611379759423
 20
-25.51330590851356
 30
0.0
 11
-76.02297621510455
 21
-25.46506273359392
 31
0.0
  0
LINE
  5
3D5
330
1F
100
AcDbEntity
  8
Layer1
 62
     7
370
    25
100
AcDbLine
 10
-63.69063254401779
 20
-23.36185639869366
 30
0.0
 11
-78.54091277735063
 21
-23.36185639869369
 31
0.0
  0
LINE
  5
3D6
330
1F
100
AcDbEntity
  8
Layer1
 62
     7
370
    25
100
AcDbLine
 10
-68.02568425440501
 20
-27.66879586278476
 30
0.0
 11
-68.15706007930174
 21
-28.15122761198113
 31
0.0
  0
CIRCLE
  5
3D7
330
1F
100
AcDbEntity
  8
Layer1
 62
     7
370
    25
100
AcDbCircle
 10
64.55310286527885
 20
-27.91679041179843
 30
0.0
 40
0.1900000000000727
210
0.0
220
0.0
230
-1.0
  0
MTEXT
  5
3D8
330
1F
100
AcDbEntity
  8
Layer1
 62
     7
370
    25
100
AcDbMText
 10
-46.23321125450531
 20
-8.236102867462936
 30
0.0
 40
1.333333373069763
 41
9.205395548271637
 71
     1
 72
     1
  1
{\C7;\l\fPlotter|b0|i0|c00|p34;SM1017\P}
 73
     1
 44
1.0
  0
MTEXT
  5
3D9
330
1F
100
AcDbEntity
  8
Layer1
 62
     7
370
    25
100
AcDbMText
 10
-88.11993129230328
 20
-8.579975740791642
 30
0.0
 40
1.333333373069763
 41
9.205395548271637
 71
     1
 72
     1
  1
{\C7;\l\fPlotter|b0|i0|c00|p34;SM1014\P}
 73
     1
 44
1.0
  0
MTEXT
  5
3DA
330
1F
100
AcDbEntity
  8
Layer1
 62
     7
370
    25
100
AcDbMText
 10
-106.382339353736
 20
-8.238753848753536
 30
0.0
 40
1.333333373069763
 41
9.205395548271637
 71
     1
 72
     1
  1
{\C7;\l\fPlotter|b0|i0|c00|p34;SM1013\P}
 73
     1
 44
1.0
  0
MTEXT
  5
3DB
330
1F
100
AcDbEntity
  8
Layer1
 62
     7
370
    25
100
AcDbMText
 10
-58.0323626986388
 20
-8.221519534129218
 30
0.0
 40
1.333333373069763
 41
9.205395548271637
 71
     1
 72
     1
  1
{\C7;\l\fPlotter|b0|i0|c00|p34;SM1016\P}
 73
     1
 44
1.0
  0
MTEXT
  5
3DC
330
1F
100
AcDbEntity
  8
Layer1
 62
     7
370
    25
100
AcDbMText
 10
-72.45032707885878
 20
-8.467301496205867
 30
0.0
 40
1.333333373069763
 41
9.205395548271637
 71
     1
 72
     1
  1
{\C7;\l\fPlotter|b0|i0|c00|p34;SM1015\P}
 73
     1
 44
1.0
  0
CIRCLE
  5
3DD
330
1F
100
AcDbEntity
  8
Layer1
 62
     7
370
    25
100
AcDbCircle
 10
-68.23837433430081
 20
-3.302778967520879
 30
0.0
 40
0.1874999999999758
  0
CIRCLE
  5
3DE
330
1F
100
AcDbEntity
  8
Layer1
 62
     7
370
    25
100
AcDbCircle
 10
-65.38520478541535
 20
-1.229829950645723
 30
0.0
 40
0.1874999999999642
  0
CIRCLE
  5
3DF
330
1F
100
AcDbEntity
  8
Layer1
 62
     7
370
    25
100
AcDbCircle
 10
-71.09154388318628
 20
-1.229829950645723
 30
0.0
 40
0.1875
  0
ARC
  5
3E0
330
1F
100
AcDbEntity
  8
Layer1
 62
     7
370
    25
100
AcDbCircle
 10
-30.68434444998934
 20
0.0524818506811471
 30
0.0
 40
2.499999999999992
100
AcDbArc
 50
264.266391101087
 51
275.7410431682563
  0
LINE
  5
3E1
330
1F
100
AcDbEntity
  8
Layer1
 62
     7
370
    25
100
AcDbLine
 10
-30.43426314814812
 20
-2.434978569600844
 30
0.0
 11
-30.43926477418495
 21
-2.385229361195201
 31
0.0
  0
LINE
  5
3E2
330
1F
100
AcDbEntity
  8
Layer1
 62
     7
370
    25
100
AcDbLine
 10
-30.93410299557405
 20
-2.435010997330153
 30
0.0
 11
-30.92910782466236
 21
-2.385261140369948
 31
0.0
  0
MTEXT
  5
3E3
330
1F
100
AcDbEntity
  8
Layer1
 62
     7
370
    25
100
AcDbMText
 10
-34.55954079196466
 20
-8.168432633731687
 30
0.0
 40
1.333333373069763
 41
9.205395548271637
 71
     1
 72
     1
  1
{\C7;\l\fPlotter|b0|i0|c00|p34;SM1020\P}
 73
     1
 44
1.0
  0
MTEXT
  5
3E4
330
1F
100
AcDbEntity
  8
Layer1
 62
     7
370
    25
100
AcDbMText
 10
-87.31344338413727
 20
86.5198804793477
 30
0.0
 40
2.0
 41
56.01866729141312
 71
     1
 72
     1
  1
{\C7;\l\fPlotter|b0|i0|c00|p34;\H1.00x;FLANGE RINGS & END PLATES\P\l\fPlotter|b1|i0|c00|p34;\H0.78x;10awg mild steel parts\P\l\fPlotter|b0|i0|c00|p34;\H0.11x;\P\P}
 73
     1
 44
1.0
  0
MTEXT
  5
3E5
330
1F
100
AcDbEntity
  8
Layer1
 62
     7
370
    25
100
AcDbMText
 10
-33.40083682777973
 20
52.64890298524123
 30
0.0
 40
1.333333373069763
 41
9.205395548271637
 71
     1
 72
     1
  1
{\C7;\l\fPlotter|b0|i0|c00|p34;\H1.00x;SM1021\P}
 73
     1
 44
1.0
  0
LINE
  5
3E6
330
1F
100
AcDbEntity
  8
Layer1
 62
     7
370
    25
100
AcDbLine
 10
-13.681405299833
 20
57.37417792223819
 30
0.0
 11
-12.62546978294905
 21
58.68050872657464
 31
0.0
  0
LINE
  5
3E7
330
1F
100
AcDbEntity
  8
Layer1
 62
     7
370
    25
100
AcDbLine
 10
-13.68144157917983
 20
60.51738922257421
 30
0.0
 11
-12.62547590690282
 21
59.21108279407137
 31
0.0
  0
LINE
  5
3E8
330
1F
100
AcDbEntity
  8
Layer1
 62
     7
370
    25
100
AcDbLine
 10
-78.54091277735063
 20
-23.36185639869369
 30
0.0
 11
-79.53434955842434
 21
-23.47623892362616
 31
0.0
  0
LINE
  5
3E9
330
1F
100
AcDbEntity
  8
Layer1
 62
     7
370
    25
100
AcDbLine
 10
-78.45247163992906
 20
-25.34758090199027
 30
0.0
 11
-68.15706007930174
 21
-28.15122761198113
 31
0.0
  0
MTEXT
  5
3EA
330
1F
100
AcDbEntity
  8
Layer1
 62
     7
370
    25
100
AcDbMText
 10
-51.10028986052065
 20
-33.30911931766541
 30
0.0
 40
1.333333373069763
 41
11.81400469950776
 71
     1
 72
     1
  1
{\C7;\l\fPlotter|b0|i0|c00|p34;SM1019-b\P}
 73
     1
 44
1.0
  0
LINE
  5
3EB
330
1F
100
AcDbEntity
  8
Layer1
 62
     7
370
    25
100
AcDbLine
 10
-55.42198334155903
 20
-22.87828100415662
 30
0.0
 11
-44.75165372729013
 21
-22.87828100415662
 31
0.0
  0
LINE
  5
3EC
330
1F
100
AcDbEntity
  8
Layer1
 62
     7
370
    25
100
AcDbLine
 10
-41.70057601804369
 20
-28.67293167169028
 30
0.0
 11
-56.02906935609023
 21
-24.77099604048449
 31
0.0
  0
LINE
  5
3ED
330
1F
100
AcDbEntity
  8
Layer1
 62
     7
370
    25
100
AcDbLine
 10
-55.026983341559
 20
-23.4032810041566
 30
0.0
 11
-55.026983341559
 21
-23.35328100415659
 31
0.0
  0
LINE
  5
3EE
330
1F
100
AcDbEntity
  8
Layer1
 62
     7
370
    25
100
AcDbLine
 10
-55.026983341559
 20
-23.35328100415659
 30
0.0
 11
-55.401983341559
 21
-23.35328100415659
 31
0.0
  0
LINE
  5
3EF
330
1F
100
AcDbEntity
  8
Layer1
 62
     7
370
    25
100
AcDbLine
 10
-55.401983341559
 20
-23.35328100415659
 30
0.0
 11
-55.40198334155903
 21
-23.4032810041566
 31
0.0
  0
LINE
  5
3F0
330
1F
100
AcDbEntity
  8
Layer1
 62
     7
370
    25
100
AcDbLine
 10
-55.40198334155903
 20
-23.4032810041566
 30
0.0
 11
-55.026983341559
 21
-23.4032810041566
 31
0.0
  0
LINE
  5
3F1
330
1F
100
AcDbEntity
  8
Layer1
 62
     7
370
    25
100
AcDbLine
 10
-49.00165372729013
 20
-23.35328100415236
 30
0.0
 11
-47.00165372729019
 21
-23.35328100415133
 31
0.0
  0
LINE
  5
3F2
330
1F
100
AcDbEntity
  8
Layer1
 62
     7
370
    25
100
AcDbLine
 10
-47.00165372729019
 20
-23.35328100415236
 30
0.0
 11
-47.00165372729019
 21
-23.40328100415236
 31
0.0
  0
LINE
  5
3F3
330
1F
100
AcDbEntity
  8
Layer1
 62
     7
370
    25
100
AcDbLine
 10
-47.00165372729019
 20
-23.40328100415236
 30
0.0
 11
-49.00165372729013
 21
-23.40328100415236
 31
0.0
  0
LINE
  5
3F4
330
1F
100
AcDbEntity
  8
Layer1
 62
     7
370
    25
100
AcDbLine
 10
-49.00165372729013
 20
-23.40328100415236
 30
0.0
 11
-49.00165372729013
 21
-23.35328100415236
 31
0.0
  0
LINE
  5
3F5
330
1F
100
AcDbEntity
  8
Layer1
 62
     7
370
    25
100
AcDbLine
 10
-56.95754604697542
 20
-24.39960536413038
 30
0.0
 11
-56.40046003244429
 21
-23.00689032780245
 31
0.0
  0
CIRCLE
  5
3F6
330
1F
100
AcDbEntity
  8
Layer1
 62
     7
370
    25
100
AcDbCircle
 10
-56.33082428062794
 20
-23.84251934959921
 30
0.0
 40
0.1900000000000017
  0
LINE
  5
3F7
330
1F
100
AcDbEntity
  8
Layer1
 62
     7
370
    25
100
AcDbLine
 10
-44.7716537272902
 20
-23.40328100415663
 30
0.0
 11
-44.7716537272902
 21
-23.35328100415661
 31
0.0
  0
LINE
  5
3F8
330
1F
100
AcDbEntity
  8
Layer1
 62
     7
370
    25
100
AcDbLine
 10
-44.7716537272902
 20
-23.35328100415661
 30
0.0
 11
-45.1466537272902
 21
-23.35328100415661
 31
0.0
  0
LINE
  5
3F9
330
1F
100
AcDbEntity
  8
Layer1
 62
     7
370
    25
100
AcDbLine
 10
-45.1466537272902
 20
-23.35328100415661
 30
0.0
 11
-45.14665372729023
 21
-23.40328100415663
 31
0.0
  0
LINE
  5
3FA
330
1F
100
AcDbEntity
  8
Layer1
 62
     7
370
    25
100
AcDbLine
 10
-45.14665372729023
 20
-23.40328100415663
 30
0.0
 11
-44.7716537272902
 21
-23.40328100415663
 31
0.0
  0
LINE
  5
3FB
330
1F
100
AcDbEntity
  8
Layer1
 62
     7
370
    25
100
AcDbLine
 10
-40.61635628739502
 20
-23.93536701868778
 30
0.0
 11
-40.98774696374913
 21
-24.863843709573
 31
0.0
  0
LINE
  5
3FC
330
1F
100
AcDbEntity
  8
Layer1
 62
     7
370
    25
100
AcDbLine
 10
-37.27384020020808
 20
-26.34940641498945
 30
0.0
 11
-40.98774696374913
 21
-24.863843709573
 31
0.0
  0
CIRCLE
  5
3FD
330
1F
100
AcDbEntity
  8
Layer1
 62
     7
370
    25
100
AcDbCircle
 10
-43.88923662276555
 20
-23.03010224507462
 30
0.0
 40
0.1899999999999595
  0
LINE
  5
3FE
330
1F
100
AcDbEntity
  8
Layer1
 62
     7
370
    25
100
AcDbLine
 10
-44.70165372729018
 20
-23.37828100415659
 30
0.0
 11
-44.75165372729019
 21
-23.37828100415662
 31
0.0
  0
LINE
  5
3FF
330
1F
100
AcDbEntity
  8
Layer1
 62
     7
370
    25
100
AcDbLine
 10
-44.70165372729018
 20
-23.37828100415659
 30
0.0
 11
-44.33026305093607
 21
-22.44980431327134
 31
0.0
  0
LINE
  5
400
330
1F
100
AcDbEntity
  8
Layer1
 62
     7
370
    25
100
AcDbLine
 10
-37.27384020020808
 20
-26.34940641498945
 30
0.0
 11
-41.70057601804369
 21
-28.67293167169028
 31
0.0
  0
LINE
  5
401
330
1F
100
AcDbEntity
  8
Layer1
 62
     7
370
    25
100
AcDbLine
 10
-44.75165372729019
 20
-23.37828100415662
 30
0.0
 11
-44.75165372729013
 21
-22.87828100415662
 31
0.0
  0
CIRCLE
  5
402
330
1F
100
AcDbEntity
  8
Layer1
 62
     7
370
    25
100
AcDbCircle
 10
-41.33592572283111
 20
-24.05142660504843
 30
0.0
 40
0.1900000000000017
  0
LINE
  5
403
330
1F
100
AcDbEntity
  8
Layer1
 62
     7
370
    25
100
AcDbLine
 10
-44.33026305093607
 20
-22.44980431327134
 30
0.0
 11
-40.61635628739502
 21
-23.93536701868778
 31
0.0
  0
LINE
  5
404
330
1F
100
AcDbEntity
  8
Layer1
 62
     7
370
    25
100
AcDbLine
 10
-67.86305855455288
 20
-28.67537022634814
 30
0.0
 11
-63.88931143025803
 21
-28.21784012661827
 31
0.0
  0
LINE
  5
405
330
1F
100
AcDbEntity
  8
Layer1
 62
     7
370
    25
100
AcDbLine
 10
-63.88931143025803
 20
-28.21784012661827
 30
0.0
 11
-64.0036939551905
 21
-27.22440334554459
 31
0.0
  0
LINE
  5
406
330
1F
100
AcDbEntity
  8
Layer1
 62
     7
370
    25
100
AcDbLine
 10
-55.42198334155903
 20
-23.37828100415659
 30
0.0
 11
-55.42198334155903
 21
-22.87828100415662
 31
0.0
  0
LINE
  5
407
330
1F
100
AcDbEntity
  8
Layer1
 62
     7
370
    25
100
AcDbLine
 10
-56.02906935609023
 20
-24.77099604048449
 30
0.0
 11
-56.95754604697542
 21
-24.39960536413038
 31
0.0
  0
LINE
  5
408
330
1F
100
AcDbEntity
  8
Layer1
 62
     7
370
    25
100
AcDbLine
 10
-56.40046003244429
 20
-23.00689032780245
 30
0.0
 11
-55.47198334155898
 21
-23.37828100415659
 31
0.0
  0
LINE
  5
409
330
1F
100
AcDbEntity
  8
Layer1
 62
     7
370
    25
100
AcDbLine
 10
-55.42198334155903
 20
-23.37828100415662
 30
0.0
 11
-55.47198334155898
 21
-23.37828100415659
 31
0.0
  0
MTEXT
  5
40A
330
1F
100
AcDbEntity
  8
Layer1
 62
     7
370
    25
100
AcDbMText
 10
-69.45337060535225
 20
132.6554198554089
 30
0.0
 40
5.0
 41
143.7070618204769
 71
     1
 72
     1
  1
{\C7;\l\fPlotter|b0|i0|c00|p34;\H1.00x;GEK v4.0 Sheet Metal Parts \Pand Part Numbers\P\l\fPlotter|b0|i0|c00|p34;\H0.75x;8/10/10\P}
 73
     1
 44
1.0
  0
LINE
  5
40B
330
1F
100
AcDbEntity
  8
Layer1
 62
     7
370
    25
100
AcDbLine
 10
-1.116723024878118
 20
101.4870017994731
 30
0.0
 11
-1.116723024878118
 21
-129.7140467253734
 31
0.0
  0
CIRCLE
  5
40C
330
1F
100
AcDbEntity
  8
Layer1
 62
     7
370
    25
100
AcDbCircle
 10
-54.32522775049605
 20
-0.0918158855139097
 30
0.0
 40
3.374999999999955
  0
CIRCLE
  5
40D
330
1F
100
AcDbEntity
  8
Layer1
 62
     7
370
    25
100
AcDbCircle
 10
-56.08858350737344
 20
2.335235097610962
 30
0.0
 40
0.1875000000000028
  0
ARC
  5
40E
330
1F
100
AcDbEntity
  8
Layer1
 62
     7
370
    25
100
AcDbCircle
 10
-54.32522775049605
 20
-0.0918158855139097
 30
0.0
 40
2.049999999999977
100
AcDbArc
 50
157.2039890080118
 51
262.8463268124844
  0
CIRCLE
  5
40F
330
1F
100
AcDbEntity
  8
Layer1
 62
     7
370
    25
100
AcDbCircle
 10
-57.1783972993815
 20
-1.018866868638753
 30
0.0
 40
0.1875
  0
LINE
  5
410
330
1F
100
AcDbEntity
  8
Layer1
 62
     7
370
    25
100
AcDbLine
 10
-56.16900800790077
 20
0.6830869228463143
 30
0.0
 11
-56.21510251433588
 21
0.7024594930553008
 31
0.0
  0
LINE
  5
411
330
1F
100
AcDbEntity
  8
Layer1
 62
     7
370
    25
100
AcDbLine
 10
-54.57428977644358
 20
-2.076247317242093
 30
0.0
 11
-54.58051632709228
 21
-2.125858103035313
 31
0.0
  0
ARC
  5
412
330
1F
100
AcDbEntity
  8
Layer1
 62
     7
370
    25
100
AcDbCircle
 10
-54.32522775049605
 20
-0.0918158855139097
 30
0.0
 40
1.999999999999962
100
AcDbArc
 50
262.8463268124849
 51
277.2039890080126
  0
ARC
  5
413
330
1F
100
AcDbEntity
  8
Layer1
 62
     7
370
    25
100
AcDbCircle
 10
-54.32522775049605
 20
-0.0918158855139097
 30
0.0
 40
2.049999999999955
100
AcDbArc
 50
277.2039890080124
 51
22.84632681248424
  0
CIRCLE
  5
414
330
1F
100
AcDbEntity
  8
Layer1
 62
     7
370
    25
100
AcDbCircle
 10
-51.47205820161057
 20
-1.018866868638753
 30
0.0
 40
0.1874999999999871
  0
CIRCLE
  5
415
330
1F
100
AcDbEntity
  8
Layer1
 62
     7
370
    25
100
AcDbCircle
 10
-54.32522775049605
 20
-3.09181588551391
 30
0.0
 40
0.1875000000000028
  0
LINE
  5
416
330
1F
100
AcDbEntity
  8
Layer1
 62
     7
370
    25
100
AcDbLine
 10
-54.07442313929752
 20
-2.076027831602715
 30
0.0
 11
-54.06815302401756
 21
-2.125633130254897
 31
0.0
  0
LINE
  5
417
330
1F
100
AcDbEntity
  8
Layer1
 62
     7
370
    25
100
AcDbLine
 10
-55.91926476946722
 20
1.116093871938801
 30
0.0
 11
-55.95911569494152
 21
1.146291615875157
 31
0.0
  0
ARC
  5
418
330
1F
100
AcDbEntity
  8
Layer1
 62
     7
370
    25
100
AcDbCircle
 10
-54.32522775049605
 20
-0.0918158855139097
 30
0.0
 40
2.049999999999983
100
AcDbArc
 50
37.2039890080128
 51
142.8463268124835
  0
CIRCLE
  5
419
330
1F
100
AcDbEntity
  8
Layer1
 62
     7
370
    25
100
AcDbCircle
 10
-52.56187199361861
 20
2.335235097610905
 30
0.0
 40
0.1875000000000206
  0
LINE
  5
41A
330
1F
100
AcDbEntity
  8
Layer1
 62
     7
370
    25
100
AcDbLine
 10
-52.73225210428981
 20
1.117493252214729
 30
0.0
 11
-52.69242771313466
 21
1.147725980657924
 31
0.0
  0
ARC
  5
41B
330
1F
100
AcDbEntity
  8
Layer1
 62
     7
370
    25
100
AcDbCircle
 10
-54.32522775049605
 20
-0.0918158855139097
 30
0.0
 40
2.000000000000015
100
AcDbArc
 50
22.84632681248459
 51
37.20398900801191
  0
LINE
  5
41C
330
1F
100
AcDbEntity
  8
Layer1
 62
     7
370
    25
100
AcDbLine
 10
-52.48212870557731
 20
0.6847057887616188
 30
0.0
 11
-52.43605122945436
 21
0.7041188306184836
 31
0.0
  0
ARC
  5
41D
330
1F
100
AcDbEntity
  8
Layer1
 62
     7
370
    25
100
AcDbCircle
 10
-54.32522775049605
 20
-0.0918158855139097
 30
0.0
 40
1.999999999999986
100
AcDbArc
 50
142.8463268124837
 51
157.2039890080129
  0
CIRCLE
  5
41E
330
1F
100
AcDbEntity
  8
Layer1
 62
     7
370
    25
100
AcDbCircle
 10
-83.76337678072697
 20
-1.178011041515987
 30
0.0
 40
3.250000000000024
  0
CIRCLE
  5
41F
330
1F
100
AcDbEntity
  8
Layer1
 62
     7
370
    25
100
AcDbCircle
 10
-83.76337678072697
 20
-1.178011041515987
 30
0.0
 40
2.000000000000026
  0
CIRCLE
  5
420
330
1F
100
AcDbEntity
  8
Layer1
 62
     7
370
     9
100
AcDbCircle
 10
-83.7634076212927
 20
1.493988955719033
 30
0.0
 40
0.1875000000000158
  0
CIRCLE
  5
421
330
1F
100
AcDbEntity
  8
Layer1
 62
     7
370
     9
100
AcDbCircle
 10
-83.76337678072697
 20
-3.850011041516012
 30
0.0
 40
0.1874999999999874
  0
CIRCLE
  5
422
330
1F
100
AcDbEntity
  8
Layer1
 62
     7
370
    25
100
AcDbCircle
 10
-85.84934178522734
 20
-3.263976046016325
 30
0.0
 40
0.1874999999999808
  0
CIRCLE
  5
423
330
1F
100
AcDbEntity
  8
Layer1
 62
     7
370
    25
100
AcDbCircle
 10
-85.84934178522734
 20
0.9079539629843225
 30
0.0
 40
0.1875000000000092
  0
CIRCLE
  5
424
330
1F
100
AcDbEntity
  8
Layer1
 62
     7
370
    25
100
AcDbCircle
 10
-81.67741177622669
 20
0.9079539629842941
 30
0.0
 40
0.1874999999999808
  0
CIRCLE
  5
425
330
1F
100
AcDbEntity
  8
Layer1
 62
     7
370
    25
100
AcDbCircle
 10
-81.67741177622669
 20
-3.263976046016325
 30
0.0
 40
0.1874999999999808
  0
CIRCLE
  5
426
330
1F
100
AcDbEntity
  8
Layer1
 62
     7
370
    25
100
AcDbCircle
 10
-68.23837433430081
 20
-0.3027789675208794
 30
0.0
 40
3.374999999999978
  0
ARC
  5
427
330
1F
100
AcDbEntity
  8
Layer1
 62
     7
370
    25
100
AcDbCircle
 10
97.31922166415193
 20
8.109486703624015
 30
0.0
 40
0.2500000000000436
210
0.0
220
0.0
230
-1.0
100
AcDbArc
 50
211.0734422141577
 51
310.2002872692345
  0
ARC
  5
428
330
1F
100
AcDbEntity
  8
Layer1
 62
     7
370
    25
100
AcDbCircle
 10
-96.4613199189428
 20
7.251584958414895
 30
0.0
 40
0.2499999999999949
100
AcDbArc
 50
121.0734422141644
 51
220.2002872692429
  0
CIRCLE
  5
429
330
1F
100
AcDbEntity
  8
Layer1
 62
     7
370
    25
100
AcDbCircle
 10
-101.9988176640828
 20
9.196988958484013
 30
0.0
 40
0.1874999999999915
  0
CIRCLE
  5
42A
330
1F
100
AcDbEntity
  8
Layer1
 62
     7
370
    25
100
AcDbCircle
 10
-98.10511370227475
 20
7.931526974499008
 30
0.0
 40
0.1875000000000247
  0
CIRCLE
  5
42B
330
1F
100
AcDbEntity
  8
Layer1
 62
     7
370
    25
100
AcDbCircle
 10
-96.78390515380754
 20
7.786901468759226
 30
0.0
 40
0.1874999999999894
  0
CIRCLE
  5
42C
330
1F
100
AcDbEntity
  8
Layer1
 62
     7
370
    25
100
AcDbCircle
 10
-95.6988609176302
 20
4.61908495817616
 30
0.0
 40
0.1875000000000065
  0
ARC
  5
42D
330
1F
100
AcDbEntity
  8
Layer1
 62
     7
370
    25
100
AcDbCircle
 10
96.4613199189428
 20
-2.107607041446926
 30
0.0
 40
0.2499999999999949
210
0.0
220
0.0
230
-1.0
100
AcDbArc
 50
301.0734422141644
 51
40.20028726925287
  0
ARC
  5
42E
330
1F
100
AcDbEntity
  8
Layer1
 62
     7
370
    25
100
AcDbCircle
 10
-96.78390515380754
 20
-2.642923551791256
 30
0.0
 40
0.3750000000000114
100
AcDbArc
 50
211.0734390073607
 51
58.92655808497183
  0
ARC
  5
42F
330
1F
100
AcDbEntity
  8
Layer1
 62
     7
370
    25
100
AcDbCircle
 10
-97.31922166415187
 20
-2.965508786656045
 30
0.0
 40
0.2500000000000243
100
AcDbArc
 50
31.07344221417557
 51
130.2002872692445
  0
CIRCLE
  5
430
330
1F
100
AcDbEntity
  8
Layer1
 62
     7
370
    25
100
AcDbCircle
 10
-95.69916608835915
 20
0.5249031739875818
 30
0.0
 40
0.1874999999999941
  0
CIRCLE
  5
431
330
1F
100
AcDbEntity
  8
Layer1
 62
     7
370
    25
100
AcDbCircle
 10
-96.78390515380754
 20
-2.642923551791256
 30
0.0
 40
0.1875000000000148
  0
CIRCLE
  5
432
330
1F
100
AcDbEntity
  8
Layer1
 62
     7
370
    25
100
AcDbCircle
 10
-98.10591264961566
 20
-2.787180092627381
 30
0.0
 40
0.1874999999999686
  0
CIRCLE
  5
433
330
1F
100
AcDbEntity
  8
Layer1
 62
     7
370
    25
100
AcDbCircle
 10
-101.9998052173065
 20
-4.052061607391607
 30
0.0
 40
0.1874999999999513
  0
CIRCLE
  5
434
330
1F
100
AcDbEntity
  8
Layer1
 62
     7
370
    25
100
AcDbCircle
 10
-105.8927102317737
 20
7.932107443719786
 30
0.0
 40
0.1875000000000336
  0
ARC
  5
435
330
1F
100
AcDbEntity
  8
Layer1
 62
     7
370
    25
100
AcDbCircle
 10
107.5363154092228
 20
7.251584958414895
 30
0.0
 40
0.2499999999999949
210
0.0
220
0.0
230
-1.0
100
AcDbArc
 50
121.0734422141644
 51
220.2002872692345
  0
ARC
  5
436
330
1F
100
AcDbEntity
  8
Layer1
 62
     7
370
    25
100
AcDbCircle
 10
-107.213730174358
 20
7.786901468759226
 30
0.0
 40
0.3750000000000407
100
AcDbArc
 50
31.07343900736809
 51
238.9265580849622
  0
CIRCLE
  5
437
330
1F
100
AcDbEntity
  8
Layer1
 62
     7
370
    25
100
AcDbCircle
 10
-105.8935091791145
 20
-2.786599623406602
 30
0.0
 40
0.1874999999999863
  0
ARC
  5
438
330
1F
100
AcDbEntity
  8
Layer1
 62
     7
370
    25
100
AcDbCircle
 10
-107.5363154092228
 20
-2.107607041446926
 30
0.0
 40
0.2499999999999949
100
AcDbArc
 50
301.0734422141644
 51
40.20028726924447
  0
ARC
  5
439
330
1F
100
AcDbEntity
  8
Layer1
 62
     7
370
    25
100
AcDbCircle
 10
106.6784136640137
 20
-2.965508786655988
 30
0.0
 40
0.2499999999999949
210
0.0
220
0.0
230
-1.0
100
AcDbArc
 50
31.07344221416439
 51
130.2002872692529
  0
ARC
  5
43A
330
1F
100
AcDbEntity
  8
Layer1
 62
     7
370
    25
100
AcDbCircle
 10
-107.213730174358
 20
-2.642923551791256
 30
0.0
 40
0.3750000000000114
100
AcDbArc
 50
121.0734390073606
 51
328.9265580849644
  0
CIRCLE
  5
43B
330
1F
100
AcDbEntity
  8
Layer1
 62
     7
370
    25
100
AcDbCircle
 10
-108.2994567930301
 20
4.620024177104796
 30
0.0
 40
0.187500000000007
  0
CIRCLE
  5
43C
330
1F
100
AcDbEntity
  8
Layer1
 62
     7
370
    25
100
AcDbCircle
 10
-107.213730174358
 20
7.786901468759226
 30
0.0
 40
0.1875000000000019
  0
ARC
  5
43D
330
1F
100
AcDbEntity
  8
Layer1
 62
     7
370
    25
100
AcDbCircle
 10
-106.6784136640137
 20
8.109486703624015
 30
0.0
 40
0.2499999999999949
100
AcDbArc
 50
211.0734422141644
 51
310.2002872692445
  0
ARC
  5
43E
330
1F
100
AcDbEntity
  8
Layer1
 62
     7
370
    25
100
AcDbCircle
 10
-101.9988176640828
 20
2.571988958483985
 30
0.0
 40
6.999999999999964
100
AcDbArc
 50
139.7997127360044
 51
220.200287549614
  0
ARC
  5
43F
330
1F
100
AcDbEntity
  8
Layer1
 62
     7
370
    25
100
AcDbCircle
 10
-101.9988176640828
 20
2.571988958483985
 30
0.0
 40
6.999999999999996
100
AcDbArc
 50
49.79971281211576
 51
130.2002871685644
  0
CIRCLE
  5
440
330
1F
100
AcDbEntity
  8
Layer1
 62
     7
370
    25
100
AcDbCircle
 10
-107.213730174358
 20
-2.642923551791256
 30
0.0
 40
0.1875000000000148
  0
CIRCLE
  5
441
330
1F
100
AcDbEntity
  8
Layer1
 62
     7
370
    25
100
AcDbCircle
 10
-108.2997619637591
 20
0.5258423929162177
 30
0.0
 40
0.1875000000000328
  0
CIRCLE
  5
442
330
1F
100
AcDbEntity
  8
Layer1
 62
     7
370
    25
100
AcDbCircle
 10
-101.9988176640828
 20
2.571988958483985
 30
0.0
 40
5.199999999999984
  0
ARC
  5
443
330
1F
100
AcDbEntity
  8
Layer1
 62
     7
370
    25
100
AcDbCircle
 10
-101.9988176640828
 20
2.571988958483985
 30
0.0
 40
6.999999999999988
100
AcDbArc
 50
229.7997124409707
 51
310.2002873185522
  0
ARC
  5
444
330
1F
100
AcDbEntity
  8
Layer1
 62
     7
370
    25
100
AcDbCircle
 10
-101.9988176640828
 20
2.571988958483985
 30
0.0
 40
6.999999999999996
100
AcDbArc
 50
319.799712721595
 51
40.20028779756085
  0
ARC
  5
445
330
1F
100
AcDbEntity
  8
Layer1
 62
     7
370
    25
100
AcDbCircle
 10
-96.78390515380754
 20
7.786901468759226
 30
0.0
 40
0.3749999999999627
100
AcDbArc
 50
301.0734390073652
 51
148.9265580849644
  0
CIRCLE
  5
446
330
1F
100
AcDbEntity
  8
Layer1
 62
     7
370
    25
100
AcDbCircle
 10
-68.23837433430081
 20
-0.3027789675208794
 30
0.0
 40
1.015000000000015
  0
ARC
  5
447
330
1F
100
AcDbEntity
  8
Layer1
 62
     7
370
    25
100
AcDbCircle
 10
-30.68434444998934
 20
0.0524818506811471
 30
0.0
 40
2.450000000000008
100
AcDbArc
 50
275.7410431682562
 51
24.26639110108689
  0
ARC
  5
448
330
1F
100
AcDbEntity
  8
Layer1
 62
     7
370
    25
100
AcDbCircle
 10
-30.68434444998934
 20
0.0524818506811471
 30
0.0
 40
2.450000000000026
100
AcDbArc
 50
155.7410431682572
 51
264.2663911010868
  0
ARC
  5
449
330
1F
100
AcDbEntity
  8
Layer1
 62
     7
370
    25
100
AcDbCircle
 10
-43.01315698983277
 20
-0.1910500241289981
 30
0.0
 40
1.999826196327633
100
AcDbArc
 50
82.75859395153886
 51
97.34035467657179
  0
LINE
  5
44A
330
1F
100
AcDbEntity
  8
Layer1
 62
     7
370
    25
100
AcDbLine
 10
-43.26229521048825
 20
1.742969145116376
 30
0.0
 11
-43.2687373495867
 21
1.792978414969355
 31
0.0
  0
LINE
  5
44B
330
1F
100
AcDbEntity
  8
Layer1
 62
     7
370
    25
100
AcDbLine
 10
-41.21367814753253
 20
-0.9422995806105234
 30
0.0
 11
-41.16714777986581
 21
-0.961725159422997
 31
0.0
  0
LINE
  5
44C
330
1F
100
AcDbEntity
  8
Layer1
 62
     7
370
    25
100
AcDbLine
 10
-44.81253776564748
 20
-0.9425344375594307
 30
0.0
 11
-44.8572826329129
 21
-0.9646813497956543
 31
0.0
  0
ARC
  5
44D
330
1F
100
AcDbEntity
  8
Layer1
 62
     7
370
    25
100
AcDbCircle
 10
43.01315698983277
 20
-0.1910500241289981
 30
0.0
 40
1.950000000000111
210
0.0
220
0.0
230
-1.0
100
AcDbArc
 50
337.3328765788557
 51
82.65964532342679
  0
ARC
  5
44E
330
1F
100
AcDbEntity
  8
Layer1
 62
     7
370
    25
100
AcDbCircle
 10
43.01315698983277
 20
-0.1910500241289981
 30
0.0
 40
1.949999999999952
210
0.0
220
0.0
230
-1.0
100
AcDbArc
 50
97.33287657885582
 51
202.6596453234314
  0
ARC
  5
44F
330
1F
100
AcDbEntity
  8
Layer1
 62
     7
370
    25
100
AcDbCircle
 10
43.01315698983277
 20
-0.1910500241289981
 30
0.0
 40
1.949999999999954
210
0.0
220
0.0
230
-1.0
100
AcDbArc
 50
217.3328765788598
 51
322.659645323426
  0
CIRCLE
  5
450
330
1F
100
AcDbEntity
  8
Layer1
 62
     7
370
    25
100
AcDbCircle
 10
43.01315698983277
 20
-0.1910500241289981
 30
0.0
 40
0.6699999999999591
210
0.0
220
0.0
230
-1.0
  0
ARC
  5
451
330
1F
100
AcDbEntity
  8
Layer1
 62
     7
370
    25
100
AcDbCircle
 10
-43.01315698983277
 20
-0.1910500241289981
 30
0.0
 40
1.999826196327704
100
AcDbArc
 50
322.7585939515376
 51
337.3403546765695
  0
LINE
  5
452
330
1F
100
AcDbEntity
  8
Layer1
 62
     7
370
    25
100
AcDbLine
 10
-41.4626620093467
 20
-1.373617280350715
 30
0.0
 11
-41.42110978710198
 21
-1.401294015973463
 31
0.0
  0
LINE
  5
453
330
1F
100
AcDbEntity
  8
Layer1
 62
     7
370
    25
100
AcDbLine
 10
-44.56349761147763
 20
-1.373819636893046
 30
0.0
 11
-44.60358584004578
 21
-1.404403327933551
 31
0.0
  0
ARC
  5
454
330
1F
100
AcDbEntity
  8
Layer1
 62
     7
370
    25
100
AcDbCircle
 10
-43.01315698983277
 20
-0.1910500241290265
 30
0.0
 40
1.999826196327676
100
AcDbArc
 50
202.7585939515394
 51
217.3403546765731
  0
LINE
  5
455
330
1F
100
AcDbEntity
  8
Layer1
 62
     7
370
    25
100
AcDbLine
 10
-42.76427119450423
 20
1.743001645522952
 30
0.0
 11
-42.76107854948341
 21
1.792825293381981
 31
0.0
  0
LINE
  5
456
330
1F
100
AcDbEntity
  8
Layer1
 62
     7
370
    25
100
AcDbLine
 10
18.25975890491385
 20
-7.165870647681167
 30
0.0
 11
14.65792049168306
 21
-5.720443359653181
 31
0.0
  0
ARC
  5
457
330
1F
100
AcDbEntity
  8
Layer1
 62
     7
370
    25
100
AcDbCircle
 10
33.28811918080719
 20
-13.19679140117783
 30
0.0
 40
20.07436383137065
100
AcDbArc
 50
21.86572208389493
 51
158.134277916106
  0
ELLIPSE
  5
458
330
1F
100
AcDbEntity
  8
Layer1
 62
     7
370
    25
100
AcDbEllipse
 10
46.92176472955795
 20
-1.240205997031204
 30
0.0
 11
0.4456014381910648
 21
0.4017951695603801
 31
0.0
210
0.0
220
0.0
230
-1.0
 40
0.916666666666667
 41
4.71238898038469
 42
4.712388980384693
  0
ELLIPSE
  5
459
330
1F
100
AcDbEntity
  8
Layer1
 62
     7
370
    25
100
AcDbEllipse
 10
37.85578858803773
 20
4.678202919619686
 30
0.0
 11
0.1733050859794277
 21
0.6782074514288845
 31
0.0
210
0.0
220
0.0
230
-1.0
 40
0.9285714285714299
 41
4.71238898038469
 42
4.712388980384693
  0
ELLIPSE
  5
45A
330
1F
100
AcDbEntity
  8
Layer1
 62
     7
370
    25
100
AcDbEllipse
 10
20.20186583880501
 20
-0.643457224770053
 30
0.0
 11
-0.4329888838588476
 21
0.4153560237370701
 31
0.0
210
0.0
220
0.0
230
0.9999999999999998
 40
0.916666666666667
 41
4.71238898038469
 42
4.712388980384693
  0
LINE
  5
45B
330
1F
100
AcDbEntity
  8
Layer1
 62
     7
370
    25
100
AcDbLine
 10
48.31647945670043
 20
-7.165870647681167
 30
0.0
 11
51.91831786993093
 21
-5.720443359653025
 31
0.0
  0
ARC
  5
45C
330
1F
100
AcDbEntity
  8
Layer1
 62
     7
370
    25
100
AcDbCircle
 10
33.28811918080719
 20
-13.19679140117783
 30
0.0
 40
16.19332015730572
100
AcDbArc
 50
21.86572208389497
 51
158.1342779161054
  0
LINE
  5
45D
330
1F
100
AcDbEntity
  8
Layer1
 62
     7
370
    25
100
AcDbLine
 10
106.2910520343637
 20
2.416692998749802
 30
0.0
 11
106.2910520343637
 21
-0.4583070012501977
 31
0.0
  0
LINE
  5
45E
330
1F
100
AcDbEntity
  8
Layer1
 62
     7
370
    25
100
AcDbLine
 10
71.35905203436374
 20
-0.4583070012501977
 30
0.0
 11
71.35929703436386
 21
2.416692998749802
 31
0.0
  0
ARC
  5
45F
330
1F
100
AcDbEntity
  8
Layer1
 62
     7
370
    25
100
AcDbCircle
 10
88.82505203436375
 20
-1.458307001250198
 30
0.0
 40
2.499999999999998
100
AcDbArc
 50
23.57817847820185
 51
156.4218215217982
  0
MTEXT
  5
460
330
1F
100
AcDbEntity
  8
Layer1
 62
     7
370
    25
100
AcDbMText
 10
-115.0018757238999
 20
-95.56624671857456
 30
0.0
 40
2.5
 41
114.1989485245585
 71
     1
 72
     1
  3
{\C7;\l\fPlotter|b0|i0|c00|p34;\H1.00x;Before building, check for more recent versions at: \Pwww.gekgasifier.com\PALL Power Labs 1010 Murray Street Berkeley, CA 94710.  jim@allpowerlabs.org\P\PThis design and drawing released under the intentions of
  1
 the Creative Commons Attribution Noncommercial- Share Alike License.   \PFor more info on use rights and responsibilities see: \Phttp://www.gekgasifier.com/wood-gasifier-plans/gek-licensing/\P}
 73
     1
 44
1.0
  0
CIRCLE
  5
461
330
1F
100
AcDbEntity
  8
Layer1
 62
     7
370
    25
100
AcDbCircle
 10
67.28505401323144
 20
-28.23134235536271
 30
0.0
 40
0.1899999999999597
210
0.0
220
0.0
230
-1.0
  0
CIRCLE
  5
462
330
1F
100
AcDbEntity
  8
Layer1
 62
     7
370
    25
100
AcDbCircle
 10
79.0760238718224
 20
-24.17842306258176
 30
0.0
 40
0.189999999999988
210
0.0
220
0.0
230
-1.0
  0
LINE
  5
463
330
1F
100
AcDbEntity
  8
Layer1
 62
     7
370
    25
100
AcDbLine
 10
-79.3627757710257
 20
-24.96639409523668
 30
0.0
 11
-78.36933898995187
 21
-24.85201157030421
 31
0.0
  0
LINE
  5
464
330
1F
100
AcDbEntity
  8
Layer1
 62
     7
370
    25
100
AcDbLine
 10
-60.02994683089571
 20
-26.76687324581475
 30
0.0
 11
-64.0036939551905
 21
-27.22440334554459
 31
0.0
  0
LINE
  5
465
330
1F
100
AcDbEntity
  8
Layer1
 62
     7
370
    25
100
AcDbLine
 10
-60.02994683089571
 20
-26.76687324581475
 30
0.0
 11
-63.69063254401779
 21
-23.36185639869366
 31
0.0
  0
LINE
  5
466
330
1F
100
AcDbEntity
  8
Layer1
 62
     7
370
    25
100
AcDbLine
 10
-78.32109581503232
 20
-24.86514915279393
 30
0.0
 11
-78.45247163992906
 21
-25.34758090199027
 31
0.0
  0
LINE
  5
467
330
1F
100
AcDbEntity
  8
Layer1
 62
     7
370
    25
100
AcDbLine
 10
-78.32109581503232
 20
-24.86514915279393
 30
0.0
 11
-78.36933898995187
 21
-24.85201157030421
 31
0.0
  0
LINE
  5
468
330
1F
100
AcDbEntity
  8
Layer1
 62
     7
370
    25
100
AcDbLine
 10
-67.97744107948535
 20
-27.68193344527442
 30
0.0
 11
-67.86305855455288
 21
-28.67537022634814
 31
0.0
  0
LINE
  5
469
330
1F
100
AcDbEntity
  8
Layer1
 62
     7
370
    25
100
AcDbLine
 10
-67.97744107948535
 20
-27.68193344527442
 30
0.0
 11
-68.02568425440501
 21
-27.66879586278476
 31
0.0
  0
LINE
  5
46A
330
1F
100
AcDbEntity
  8
Layer1
 62
     7
370
    25
100
AcDbLine
 10
-79.53434955842434
 20
-23.47623892362616
 30
0.0
 11
-79.3627757710257
 21
-24.96639409523668
 31
0.0
  0
ENDSEC
  0
SECTION
  2
OBJECTS
  0
DICTIONARY
  5
C
330
0
100
AcDbDictionary
281
     1
  3
ACAD_GROUP
350
D
  3
ACAD_LAYOUT
350
1A
  3
ACAD_MLEADERSTYLE
350
46E
  3
ACAD_MLINESTYLE
350
17
  3
ACAD_PLOTSETTINGS
350
19
  3
ACAD_PLOTSTYLENAME
350
E
  3
ACAD_SCALELIST
350
74
  3
ACAD_TABLESTYLE
350
46D
  3
ACAD_VISUALSTYLE
350
2A
  3
AcDbVariableDictionary
350
46B
  0
DICTIONARY
  5
D
102
{ACAD_REACTORS
330
C
102
}
330
C
100
AcDbDictionary
281
     1
  0
DICTIONARY
  5
1A
102
{ACAD_REACTORS
330
C
102
}
330
C
100
AcDbDictionary
281
     1
  3
Layout1
350
1E
  3
Layout2
350
26
  3
Model
350
22
  0
DICTIONARY
  5
46E
102
{ACAD_REACTORS
330
C
102
}
330
C
100
AcDbDictionary
281
     1
  0
DICTIONARY
  5
17
102
{ACAD_REACTORS
330
C
102
}
330
C
100
AcDbDictionary
281
     1
  3
Standard
350
18
  0
DICTIONARY
  5
19
102
{ACAD_REACTORS
330
C
102
}
330
C
100
AcDbDictionary
281
     1
  0
ACDBDICTIONARYWDFLT
  5
E
102
{ACAD_REACTORS
330
C
102
}
330
C
100
AcDbDictionary
281
     1
  3
Normal
350
F
100
AcDbDictionaryWithDefault
340
F
  0
DICTIONARY
  5
74
102
{ACAD_REACTORS
330
C
102
}
330
C
100
AcDbDictionary
281
     1
  3
A0
350
75
  3
A1
350
76
  3
A2
350
77
  3
A3
350
78
  3
A4
350
79
  3
A5
350
7A
  3
A6
350
7B
  3
A7
350
7C
  3
A8
350
7D
  3
A9
350
7E
  3
B0
350
7F
  3
B1
350
80
  3
B2
350
81
  3
B3
350
82
  3
B4
350
83
  3
B5
350
84
  3
B6
350
85
  3
B7
350
86
  3
B8
350
87
  3
B9
350
88
  3
C0
350
89
  3
C1
350
8A
  3
C2
350
8B
  3
C3
350
8C
  3
C4
350
8D
  3
C5
350
8E
  3
C6
350
8F
  3
C7
350
90
  3
C8
350
91
  3
C9
350
92
  3
D0
350
93
  3
D1
350
94
  3
D2
350
95
  0
DICTIONARY
  5
46D
102
{ACAD_REACTORS
330
C
102
}
330
C
100
AcDbDictionary
281
     1
  0
DICTIONARY
  5
2A
102
{ACAD_REACTORS
330
C
102
}
330
C
100
AcDbDictionary
281
     1
  3
2dWireframe
350
2F
  3
3D Hidden
350
31
  3
3dWireframe
350
30
  3
Basic
350
32
  3
Brighten
350
36
  3
ColorChange
350
3A
  3
Conceptual
350
34
  3
Dim
350
35
  3
Facepattern
350
39
  3
Flat
350
2B
  3
FlatWithEdges
350
2C
  3
Gouraud
350
2D
  3
GouraudWithEdges
350
2E
  3
Linepattern
350
38
  3
Realistic
350
33
  3
Thicken
350
37
  0
DICTIONARY
  5
46B
102
{ACAD_REACTORS
330
C
102
}
330
C
100
AcDbDictionary
281
     1
  3
CANNOSCALE
350
46C
  0
LAYOUT
  5
1E
102
{ACAD_REACTORS
330
1A
102
}
330
1A
100
AcDbPlotSettings
  1

  2
none_device
  4

  6

 40
0.0
 41
0.0
 42
0.0
 43
0.0
 44
0.0
 45
0.0
 46
0.0
 47
0.0
 48
0.0
 49
0.0
140
0.0
141
0.0
142
1.0
143
1.0
 70
   688
 72
     0
 73
     0
 74
     5
  7

 75
    16
 76
     0
 77
     2
 78
   300
147
1.0
148
0.0
149
0.0
100
AcDbLayout
  1
Layout1
 70
     1
 71
     1
 10
0.0
 20
0.0
 11
12.0
 21
9.0
 12
0.0
 22
0.0
 32
0.0
 14
1.000000000000000E+20
 24
1.000000000000000E+20
 34
1.000000000000000E+20
 15
-1.000000000000000E+20
 25
-1.000000000000000E+20
 35
-1.000000000000000E+20
146
0.0
 13
0.0
 23
0.0
 33
0.0
 16
1.0
 26
0.0
 36
0.0
 17
0.0
 27
1.0
 37
0.0
 76
     0
330
1B
  0
LAYOUT
  5
26
102
{ACAD_REACTORS
330
1A
102
}
330
1A
100
AcDbPlotSettings
  1

  2
none_device
  4

  6

 40
0.0
 41
0.0
 42
0.0
 43
0.0
 44
0.0
 45
0.0
 46
0.0
 47
0.0
 48
0.0
 49
0.0
140
0.0
141
0.0
142
1.0
143
1.0
 70
   688
 72
     0
 73
     0
 74
     5
  7

 75
    16
 76
     0
 77
     2
 78
   300
147
1.0
148
0.0
149
0.0
100
AcDbLayout
  1
Layout2
 70
     1
 71
     2
 10
0.0
 20
0.0
 11
0.0
 21
0.0
 12
0.0
 22
0.0
 32
0.0
 14
0.0
 24
0.0
 34
0.0
 15
0.0
 25
0.0
 35
0.0
146
0.0
 13
0.0
 23
0.0
 33
0.0
 16
1.0
 26
0.0
 36
0.0
 17
0.0
 27
1.0
 37
0.0
 76
     0
330
23
  0
LAYOUT
  5
22
102
{ACAD_REACTORS
330
1A
102
}
330
1A
100
AcDbPlotSettings
  1

  2
none_device
  4

  6

 40
0.0
 41
0.0
 42
0.0
 43
0.0
 44
0.0
 45
0.0
 46
0.0
 47
0.0
 48
0.0
 49
0.0
140
0.0
141
0.0
142
1.0
143
1.0
 70
  1712
 72
     0
 73
     0
 74
     0
  7

 75
     0
 76
     0
 77
     2
 78
   300
147
1.0
148
0.0
149
0.0
100
AcDbLayout
  1
Model
 70
     1
 71
     0
 10
0.0
 20
0.0
 11
12.0
 21
9.0
 12
0.0
 22
0.0
 32
0.0
 14
1.000000000000000E+20
 24
1.000000000000000E+20
 34
1.000000000000000E+20
 15
-1.000000000000000E+20
 25
-1.000000000000000E+20
 35
-1.000000000000000E+20
146
0.0
 13
0.0
 23
0.0
 33
0.0
 16
1.0
 26
0.0
 36
0.0
 17
0.0
 27
1.0
 37
0.0
 76
     0
330
1F
331
29
  0
MLINESTYLE
  5
18
102
{ACAD_REACTORS
330
17
102
}
330
17
100
AcDbMlineStyle
  2
Standard
 70
     0
  3

 62
   256
 51
90.0
 52
90.0
 71
     2
 49
0.5
 62
   256
  6
BYLAYER
 49
-0.5
 62
   256
  6
BYLAYER
  0
ACDBPLACEHOLDER
  5
F
102
{ACAD_REACTORS
330
E
102
}
330
E
  0
SCALE
  5
75
102
{ACAD_REACTORS
330
74
102
}
330
74
100
AcDbScale
 70
     0
300
1:1
140
1.0
141
1.0
290
     1
  0
SCALE
  5
76
102
{ACAD_REACTORS
330
74
102
}
330
74
100
AcDbScale
 70
     0
300
1:2
140
1.0
141
2.0
290
     0
  0
SCALE
  5
77
102
{ACAD_REACTORS
330
74
102
}
330
74
100
AcDbScale
 70
     0
300
1:4
140
1.0
141
4.0
290
     0
  0
SCALE
  5
78
102
{ACAD_REACTORS
330
74
102
}
330
74
100
AcDbScale
 70
     0
300
1:5
140
1.0
141
5.0
290
     0
  0
SCALE
  5
79
102
{ACAD_REACTORS
330
74
102
}
330
74
100
AcDbScale
 70
     0
300
1:8
140
1.0
141
8.0
290
     0
  0
SCALE
  5
7A
102
{ACAD_REACTORS
330
74
102
}
330
74
100
AcDbScale
 70
     0
300
1:10
140
1.0
141
10.0
290
     0
  0
SCALE
  5
7B
102
{ACAD_REACTORS
330
74
102
}
330
74
100
AcDbScale
 70
     0
300
1:16
140
1.0
141
16.0
290
     0
  0
SCALE
  5
7C
102
{ACAD_REACTORS
330
74
102
}
330
74
100
AcDbScale
 70
     0
300
1:20
140
1.0
141
20.0
290
     0
  0
SCALE
  5
7D
102
{ACAD_REACTORS
330
74
102
}
330
74
100
AcDbScale
 70
     0
300
1:30
140
1.0
141
30.0
290
     0
  0
SCALE
  5
7E
102
{ACAD_REACTORS
330
74
102
}
330
74
100
AcDbScale
 70
     0
300
1:40
140
1.0
141
40.0
290
     0
  0
SCALE
  5
7F
102
{ACAD_REACTORS
330
74
102
}
330
74
100
AcDbScale
 70
     0
300
1:50
140
1.0
141
50.0
290
     0
  0
SCALE
  5
80
102
{ACAD_REACTORS
330
74
102
}
330
74
100
AcDbScale
 70
     0
300
1:100
140
1.0
141
100.0
290
     0
  0
SCALE
  5
81
102
{ACAD_REACTORS
330
74
102
}
330
74
100
AcDbScale
 70
     0
300
2:1
140
2.0
141
1.0
290
     0
  0
SCALE
  5
82
102
{ACAD_REACTORS
330
74
102
}
330
74
100
AcDbScale
 70
     0
300
4:1
140
4.0
141
1.0
290
     0
  0
SCALE
  5
83
102
{ACAD_REACTORS
330
74
102
}
330
74
100
AcDbScale
 70
     0
300
8:1
140
8.0
141
1.0
290
     0
  0
SCALE
  5
84
102
{ACAD_REACTORS
330
74
102
}
330
74
100
AcDbScale
 70
     0
300
10:1
140
10.0
141
1.0
290
     0
  0
SCALE
  5
85
102
{ACAD_REACTORS
330
74
102
}
330
74
100
AcDbScale
 70
     0
300
100:1
140
100.0
141
1.0
290
     0
  0
SCALE
  5
86
102
{ACAD_REACTORS
330
74
102
}
330
74
100
AcDbScale
 70
     0
300
1/128" = 1'-0"
140
0.0078125
141
12.0
290
     0
  0
SCALE
  5
87
102
{ACAD_REACTORS
330
74
102
}
330
74
100
AcDbScale
 70
     0
300
1/64" = 1'-0"
140
0.015625
141
12.0
290
     0
  0
SCALE
  5
88
102
{ACAD_REACTORS
330
74
102
}
330
74
100
AcDbScale
 70
     0
300
1/32" = 1'-0"
140
0.03125
141
12.0
290
     0
  0
SCALE
  5
89
102
{ACAD_REACTORS
330
74
102
}
330
74
100
AcDbScale
 70
     0
300
1/16" = 1'-0"
140
0.0625
141
12.0
290
     0
  0
SCALE
  5
8A
102
{ACAD_REACTORS
330
74
102
}
330
74
100
AcDbScale
 70
     0
300
3/32" = 1'-0"
140
0.09375
141
12.0
290
     0
  0
SCALE
  5
8B
102
{ACAD_REACTORS
330
74
102
}
330
74
100
AcDbScale
 70
     0
300
1/8" = 1'-0"
140
0.125
141
12.0
290
     0
  0
SCALE
  5
8C
102
{ACAD_REACTORS
330
74
102
}
330
74
100
AcDbScale
 70
     0
300
3/16" = 1'-0"
140
0.1875
141
12.0
290
     0
  0
SCALE
  5
8D
102
{ACAD_REACTORS
330
74
102
}
330
74
100
AcDbScale
 70
     0
300
1/4" = 1'-0"
140
0.25
141
12.0
290
     0
  0
SCALE
  5
8E
102
{ACAD_REACTORS
330
74
102
}
330
74
100
AcDbScale
 70
     0
300
3/8" = 1'-0"
140
0.375
141
12.0
290
     0
  0
SCALE
  5
8F
102
{ACAD_REACTORS
330
74
102
}
330
74
100
AcDbScale
 70
     0
300
1/2" = 1'-0"
140
0.5
141
12.0
290
     0
  0
SCALE
  5
90
102
{ACAD_REACTORS
330
74
102
}
330
74
100
AcDbScale
 70
     0
300
3/4" = 1'-0"
140
0.75
141
12.0
290
     0
  0
SCALE
  5
91
102
{ACAD_REACTORS
330
74
102
}
330
74
100
AcDbScale
 70
     0
300
1" = 1'-0"
140
1.0
141
12.0
290
     0
  0
SCALE
  5
92
102
{ACAD_REACTORS
330
74
102
}
330
74
100
AcDbScale
 70
     0
300
1-1/2" = 1'-0"
140
1.5
141
12.0
290
     0
  0
SCALE
  5
93
102
{ACAD_REACTORS
330
74
102
}
330
74
100
AcDbScale
 70
     0
300
3" = 1'-0"
140
3.0
141
12.0
290
     0
  0
SCALE
  5
94
102
{ACAD_REACTORS
330
74
102
}
330
74
100
AcDbScale
 70
     0
300
6" = 1'-0"
140
6.0
141
12.0
290
     0
  0
SCALE
  5
95
102
{ACAD_REACTORS
330
74
102
}
330
74
100
AcDbScale
 70
     0
300
1'-0" = 1'-0"
140
12.0
141
12.0
290
     0
  0
VISUALSTYLE
  5
2F
102
{ACAD_REACTORS
330
2A
102
}
330
2A
100
AcDbVisualStyle
  2
2dWireframe
 70
     4
 71
     0
 72
     2
 73
     0
 90
        0
 40
-0.6
 41
-30.0
 62
     5
 63
     7
421
 16777215
 74
     1
 91
        4
 64
     7
 65
   257
 75
     1
175
     1
 42
1.0
 92
        0
 66
   257
 43
1.0
 76
     1
 77
     6
 78
     2
 67
     7
 79
     5
170
     0
171
     0
290
     0
174
     0
 93
        1
 44
0.0
173
     0
291
     0
 45
0.0
1001
ACAD
1000
AcDbSavedByObjectVersion
1070
     0
  0
VISUALSTYLE
  5
31
102
{ACAD_REACTORS
330
2A
102
}
330
2A
100
AcDbVisualStyle
  2
3D Hidden
 70
     6
 71
     1
 72
     2
 73
     2
 90
        0
 40
-0.6
 41
-30.0
 62
     5
 63
     7
421
 16777215
 74
     2
 91
        2
 64
     7
 65
   257
 75
     2
175
     1
 42
40.0
 92
        0
 66
   257
 43
1.0
 76
     1
 77
     6
 78
     2
 67
     7
 79
     3
170
     0
171
     0
290
     0
174
     0
 93
        1
 44
0.0
173
     0
291
     0
 45
0.0
1001
ACAD
1000
AcDbSavedByObjectVersion
1070
     0
  0
VISUALSTYLE
  5
30
102
{ACAD_REACTORS
330
2A
102
}
330
2A
100
AcDbVisualStyle
  2
3dWireframe
 70
     5
 71
     0
 72
     2
 73
     0
 90
        0
 40
-0.6
 41
-30.0
 62
     5
 63
     7
421
 16777215
 74
     1
 91
        4
 64
     7
 65
   257
 75
     1
175
     1
 42
1.0
 92
        0
 66
   257
 43
1.0
 76
     1
 77
     6
 78
     2
 67
     7
 79
     5
170
     0
171
     0
290
     0
174
     0
 93
        1
 44
0.0
173
     0
291
     0
 45
0.0
1001
ACAD
1000
AcDbSavedByObjectVersion
1070
     0
  0
VISUALSTYLE
  5
32
102
{ACAD_REACTORS
330
2A
102
}
330
2A
100
AcDbVisualStyle
  2
Basic
 70
     7
 71
     1
 72
     0
 73
     1
 90
        0
 40
-0.6
 41
-30.0
 62
     5
 63
     7
421
 16777215
 74
     0
 91
        4
 64
     7
 65
   257
 75
     1
175
     1
 42
1.0
 92
        8
 66
     7
 43
1.0
 76
     1
 77
     6
 78
     2
 67
     7
 79
     5
170
     0
171
     0
290
     0
174
     0
 93
        1
 44
0.0
173
     0
291
     1
 45
0.0
1001
ACAD
1000
AcDbSavedByObjectVersion
1070
     0
  0
VISUALSTYLE
  5
36
102
{ACAD_REACTORS
330
2A
102
}
330
2A
100
AcDbVisualStyle
  2
Brighten
 70
    12
 71
     2
 72
     2
 73
     0
 90
        0
 40
-0.6
 41
-30.0
 62
     5
 63
     7
421
 16777215
 74
     1
 91
        4
 64
     7
 65
   257
 75
     1
175
     1
 42
1.0
 92
        8
 66
     7
 43
1.0
 76
     1
 77
     6
 78
     2
 67
     7
 79
     5
170
     0
171
     0
290
     0
174
     0
 93
        1
 44
50.0
173
     0
291
     1
 45
0.0
1001
ACAD
1000
AcDbSavedByObjectVersion
1070
     0
  0
VISUALSTYLE
  5
3A
102
{ACAD_REACTORS
330
2A
102
}
330
2A
100
AcDbVisualStyle
  2
ColorChange
 70
    16
 71
     2
 72
     2
 73
     3
 90
        0
 40
-0.6
 41
-30.0
 62
     5
 63
     8
421
  8421504
 74
     1
 91
        4
 64
     7
 65
   257
 75
     1
175
     1
 42
1.0
 92
        8
 66
     8
424
  8421504
 43
1.0
 76
     1
 77
     6
 78
     2
 67
     7
 79
     5
170
     0
171
     0
290
     0
174
     0
 93
        1
 44
0.0
173
     0
291
     1
 45
0.0
1001
ACAD
1000
AcDbSavedByObjectVersion
1070
     0
  0
VISUALSTYLE
  5
34
102
{ACAD_REACTORS
330
2A
102
}
330
2A
100
AcDbVisualStyle
  2
Conceptual
 70
     9
 71
     3
 72
     2
 73
     0
 90
        0
 40
-0.6
 41
-30.0
 62
     5
 63
     7
421
 16777215
 74
     2
 91
        2
 64
     7
 65
   257
 75
     1
175
     1
 42
40.0
 92
        8
 66
     7
 43
1.0
 76
     1
 77
     6
 78
     2
 67
     7
 79
     3
170
     0
171
     0
290
     0
174
     0
 93
        1
 44
0.0
173
     0
291
     0
 45
0.0
1001
ACAD
1000
AcDbSavedByObjectVersion
1070
     0
  0
VISUALSTYLE
  5
35
102
{ACAD_REACTORS
330
2A
102
}
330
2A
100
AcDbVisualStyle
  2
Dim
 70
    11
 71
     2
 72
     2
 73
     0
 90
        0
 40
-0.6
 41
-30.0
 62
     5
 63
     7
421
 16777215
 74
     1
 91
        4
 64
     7
 65
   257
 75
     1
175
     1
 42
1.0
 92
        8
 66
     7
 43
1.0
 76
     1
 77
     6
 78
     2
 67
     7
 79
     5
170
     0
171
     0
290
     0
174
     0
 93
        1
 44
-50.0
173
     0
291
     1
 45
0.0
1001
ACAD
1000
AcDbSavedByObjectVersion
1070
     0
  0
VISUALSTYLE
  5
39
102
{ACAD_REACTORS
330
2A
102
}
330
2A
100
AcDbVisualStyle
  2
Facepattern
 70
    15
 71
     2
 72
     2
 73
     0
 90
        0
 40
-0.6
 41
-30.0
 62
     5
 63
     7
421
 16777215
 74
     1
 91
        4
 64
     7
 65
   257
 75
     1
175
     1
 42
1.0
 92
        8
 66
     7
 43
1.0
 76
     1
 77
     6
 78
     2
 67
     7
 79
     5
170
     0
171
     0
290
     0
174
     0
 93
        1
 44
0.0
173
     0
291
     1
 45
0.0
1001
ACAD
1000
AcDbSavedByObjectVersion
1070
     0
  0
VISUALSTYLE
  5
2B
102
{ACAD_REACTORS
330
2A
102
}
330
2A
100
AcDbVisualStyle
  2
Flat
 70
     0
 71
     2
 72
     1
 73
     1
 90
        2
 40
-0.6
 41
30.0
 62
     5
 63
     7
421
 16777215
 74
     0
 91
        4
 64
     7
 65
   257
 75
     1
175
     1
 42
1.0
 92
        8
 66
     7
 43
1.0
 76
     1
 77
     6
 78
     2
 67
     7
 79
     5
170
     0
171
     0
290
     0
174
     0
 93
       13
 44
0.0
173
     0
291
     1
 45
0.0
1001
ACAD
1000
AcDbSavedByObjectVersion
1070
     0
  0
VISUALSTYLE
  5
2C
102
{ACAD_REACTORS
330
2A
102
}
330
2A
100
AcDbVisualStyle
  2
FlatWithEdges
 70
     1
 71
     2
 72
     1
 73
     1
 90
        2
 40
-0.6
 41
30.0
 62
     5
 63
     7
421
 16777215
 74
     1
 91
        4
 64
     7
 65
   257
 75
     1
175
     1
 42
1.0
 92
        0
 66
   257
 43
1.0
 76
     1
 77
     6
 78
     2
 67
     7
 79
     5
170
     0
171
     0
290
     0
174
     0
 93
       13
 44
0.0
173
     0
291
     1
 45
0.0
1001
ACAD
1000
AcDbSavedByObjectVersion
1070
     0
  0
VISUALSTYLE
  5
2D
102
{ACAD_REACTORS
330
2A
102
}
330
2A
100
AcDbVisualStyle
  2
Gouraud
 70
     2
 71
     2
 72
     2
 73
     1
 90
        2
 40
-0.6
 41
30.0
 62
     5
 63
     7
421
 16777215
 74
     0
 91
        4
 64
     7
 65
   257
 75
     1
175
     1
 42
1.0
 92
        0
 66
     7
 43
1.0
 76
     1
 77
     6
 78
     2
 67
     7
 79
     5
170
     0
171
     0
290
     0
174
     0
 93
       13
 44
0.0
173
     0
291
     1
 45
0.0
1001
ACAD
1000
AcDbSavedByObjectVersion
1070
     0
  0
VISUALSTYLE
  5
2E
102
{ACAD_REACTORS
330
2A
102
}
330
2A
100
AcDbVisualStyle
  2
GouraudWithEdges
 70
     3
 71
     2
 72
     2
 73
     1
 90
        2
 40
-0.6
 41
30.0
 62
     5
 63
     7
421
 16777215
 74
     1
 91
        4
 64
     7
 65
   257
 75
     1
175
     1
 42
1.0
 92
        0
 66
   257
 43
1.0
 76
     1
 77
     6
 78
     2
 67
     7
 79
     5
170
     0
171
     0
290
     0
174
     0
 93
       13
 44
0.0
173
     0
291
     1
 45
0.0
1001
ACAD
1000
AcDbSavedByObjectVersion
1070
     0
  0
VISUALSTYLE
  5
38
102
{ACAD_REACTORS
330
2A
102
}
330
2A
100
AcDbVisualStyle
  2
Linepattern
 70
    14
 71
     2
 72
     2
 73
     0
 90
        0
 40
-0.6
 41
-30.0
 62
     5
 63
     7
421
 16777215
 74
     1
 91
        4
 64
     7
 65
   257
 75
     7
175
     7
 42
1.0
 92
        8
 66
     7
 43
1.0
 76
     1
 77
     6
 78
     2
 67
     7
 79
     5
170
     0
171
     0
290
     0
174
     0
 93
        1
 44
0.0
173
     0
291
     1
 45
0.0
1001
ACAD
1000
AcDbSavedByObjectVersion
1070
     0
  0
VISUALSTYLE
  5
33
102
{ACAD_REACTORS
330
2A
102
}
330
2A
100
AcDbVisualStyle
  2
Realistic
 70
     8
 71
     2
 72
     2
 73
     0
 90
        0
 40
-0.6
 41
-30.0
 62
     5
 63
     7
421
 16777215
 74
     1
 91
        0
 64
     7
 65
   257
 75
     1
175
     1
 42
1.0
 92
        8
 66
     8
424
  7895160
 43
1.0
 76
     1
 77
     6
 78
     2
 67
     7
 79
     5
170
     0
171
     0
290
     0
174
     0
 93
       13
 44
0.0
173
     0
291
     0
 45
0.0
1001
ACAD
1000
AcDbSavedByObjectVersion
1070
     0
  0
VISUALSTYLE
  5
37
102
{ACAD_REACTORS
330
2A
102
}
330
2A
100
AcDbVisualStyle
  2
Thicken
 70
    13
 71
     2
 72
     2
 73
     0
 90
        0
 40
-0.6
 41
-30.0
 62
     5
 63
     7
421
 16777215
 74
     1
 91
        4
 64
     7
 65
   257
 75
     1
175
     1
 42
1.0
 92
       12
 66
     7
 43
1.0
 76
     1
 77
     6
 78
     2
 67
     7
 79
     5
170
     0
171
     0
290
     0
174
     0
 93
        1
 44
0.0
173
     0
291
     1
 45
0.0
1001
ACAD
1000
AcDbSavedByObjectVersion
1070
     0
  0
DICTIONARYVAR
  5
46C
102
{ACAD_REACTORS
330
46B
102
}
330
46B
100
DictionaryVariables
280
     0
  1
1:1
  0
ENDSEC
  0
EOF
